  0
SECTION
  2
HEADER
  9
$ACADVER
  1
AC1009
  9
$INSBASE
 10
461.353213709702
 20
7.094786483200778
 30
0.0
  9
$EXTMIN
 10
461.353213709702
 20
7.094786483200778
 30
0.0
  9
$EXTMAX
 10
599.9049378653978
 20
274.5427288557905
 30
0.0
  9
$LIMMIN
 10
0.0
 20
0.0
  9
$LIMMAX
 10
420.0
 20
297.0
  9
$ORTHOMODE
 70
     1
  9
$REGENMODE
 70
     1
  9
$FILLMODE
 70
     1
  9
$QTEXTMODE
 70
     0
  9
$MIRRTEXT
 70
     0
  9
$DRAGMODE
 70
     2
  9
$LTSCALE
 40
1.0
  9
$OSMODE
 70
     0
  9
$ATTMODE
 70
     1
  9
$TEXTSIZE
 40
45.0
  9
$TRACEWID
 40
0.1
  9
$TEXTSTYLE
  7
STANDARD
  9
$CLAYER
  8
ITEM_50
  9
$CELTYPE
  6
BYLAYER
  9
$CECOLOR
 62
   256
  9
$DIMSCALE
 40
1.0
  9
$DIMASZ
 40
2.0
  9
$DIMEXO
 40
1.0
  9
$DIMDLI
 40
8.0
  9
$DIMRND
 40
0.0
  9
$DIMDLE
 40
0.0
  9
$DIMEXE
 40
2.0
  9
$DIMTP
 40
0.1
  9
$DIMTM
 40
0.1
  9
$DIMTXT
 40
3.5
  9
$DIMCEN
 40
2.0
  9
$DIMTSZ
 40
0.0
  9
$DIMTOL
 70
     0
  9
$DIMLIM
 70
     0
  9
$DIMTIH
 70
     0
  9
$DIMTOH
 70
     0
  9
$DIMSE1
 70
     0
  9
$DIMSE2
 70
     0
  9
$DIMTAD
 70
     1
  9
$DIMZIN
 70
     8
  9
$DIMBLK
  1

  9
$DIMASO
 70
     1
  9
$DIMSHO
 70
     1
  9
$DIMPOST
  1

  9
$DIMAPOST
  1

  9
$DIMALT
 70
     0
  9
$DIMALTD
 70
     2
  9
$DIMALTF
 40
25.39999999999999
  9
$DIMLFAC
 40
1.0
  9
$DIMTOFL
 70
     1
  9
$DIMTVP
 40
0.0
  9
$DIMTIX
 70
     0
  9
$DIMSOXD
 70
     0
  9
$DIMSAH
 70
     0
  9
$DIMBLK1
  1

  9
$DIMBLK2
  1

  9
$DIMSTYLE
  2
*UNNAMED
  9
$DIMCLRD
 70
     0
  9
$DIMCLRE
 70
     0
  9
$DIMCLRT
 70
     0
  9
$DIMTFAC
 40
1.0
  9
$DIMGAP
 40
0.09
  9
$LUNITS
 70
     2
  9
$LUPREC
 70
     3
  9
$SKETCHINC
 40
0.1
  9
$FILLETRAD
 40
20.0
  9
$AUNITS
 70
     0
  9
$AUPREC
 70
     1
  9
$MENU
  1

  9
$ELEVATION
 40
0.0
  9
$PELEVATION
 40
0.0
  9
$THICKNESS
 40
0.0
  9
$LIMCHECK
 70
     0
  9
$BLIPMODE
 70
     0
  9
$CHAMFERA
 40
5.0
  9
$CHAMFERB
 40
5.0
  9
$SKPOLY
 70
     1
  9
$TDCREATE
 40
2448875.482558564
  9
$TDUPDATE
 40
2449393.434026388
  9
$TDINDWG
 40
0.0012289352
  9
$TDUSRTIMER
 40
0.0012289352
  9
$USRTIMER
 70
     1
  9
$ANGBASE
 50
0.0
  9
$ANGDIR
 70
     0
  9
$PDMODE
 70
     0
  9
$PDSIZE
 40
0.0
  9
$PLINEWID
 40
0.0
  9
$COORDS
 70
     2
  9
$SPLFRAME
 70
     0
  9
$SPLINETYPE
 70
     6
  9
$SPLINESEGS
 70
     8
  9
$ATTDIA
 70
     1
  9
$ATTREQ
 70
     1
  9
$HANDLING
 70
     0
  9
$HANDSEED
  5
ADE5
  9
$SURFTAB1
 70
     6
  9
$SURFTAB2
 70
     6
  9
$SURFTYPE
 70
     6
  9
$SURFU
 70
     6
  9
$SURFV
 70
     6
  9
$UCSNAME
  2

  9
$UCSORG
 10
0.0
 20
0.0
 30
0.0
  9
$UCSXDIR
 10
1.0
 20
0.0
 30
0.0
  9
$UCSYDIR
 10
0.0
 20
1.0
 30
0.0
  9
$PUCSNAME
  2

  9
$PUCSORG
 10
0.0
 20
0.0
 30
0.0
  9
$PUCSXDIR
 10
1.0
 20
0.0
 30
0.0
  9
$PUCSYDIR
 10
0.0
 20
1.0
 30
0.0
  9
$USERI1
 70
     0
  9
$USERI2
 70
     3
  9
$USERI3
 70
    15
  9
$USERI4
 70
     0
  9
$USERI5
 70
     0
  9
$USERR1
 40
1.0
  9
$USERR2
 40
1.0
  9
$USERR3
 40
0.0
  9
$USERR4
 40
1.0
  9
$USERR5
 40
0.0
  9
$WORLDVIEW
 70
     5
  9
$SHADEDGE
 70
     3
  9
$SHADEDIF
 70
    70
  9
$TILEMODE
 70
     1
  9
$MAXACTVP
 70
    16
  9
$PINSBASE
 10
0.0
 20
0.0
 30
0.0
  9
$PLIMCHECK
 70
     0
  9
$PEXTMIN
 10
1.000000000000000E+20
 20
1.000000000000000E+20
 30
1.000000000000000E+20
  9
$PEXTMAX
 10
-1.000000000000000E+20
 20
-1.000000000000000E+20
 30
-1.000000000000000E+20
  9
$PLIMMIN
 10
0.0
 20
0.0
  9
$PLIMMAX
 10
12.0
 20
9.0
  9
$UNITMODE
 70
     0
  9
$VISRETAIN
 70
     0
  9
$PLINEGEN
 70
     0
  9
$PSLTSCALE
 70
     0
  9
$TREEDEPTH
 70
  3020
  9
$DWGCODEPAGE
  3
undefined
  0
ENDSEC
  0
SECTION
  2
TABLES
  0
TABLE
  2
VPORT
 70
     2
  0
VPORT
  2
*ACTIVE
 70
     0
 10
0.0
 20
0.0
 11
1.0
 21
1.0
 12
645.9889618777669
 22
151.8304365302008
 13
0.0
 23
0.0
 14
1.0
 24
1.0
 15
10.0
 25
10.0
 16
0.0
 26
0.0
 36
1.0
 17
0.0
 27
0.0
 37
0.0
 40
289.4713000940001
 41
1.275675675675675
 42
50.0
 43
0.0
 44
0.0
 50
0.0
 51
0.0
 71
     0
 72
   100
 73
     1
 74
     0
 75
     0
 76
     0
 77
     0
 78
     0
  0
ENDTAB
  0
TABLE
  2
LTYPE
 70
     4
  0
LTYPE
  2
CONTINUOUS
 70
    64
  3
Solid line
 72
    65
 73
     0
 40
0.0
  0
LTYPE
  2
GEN
 70
    64
  3
----------------------
 72
    65
 73
     2
 40
10000000000.0
 49
0.0
 49
10000000000.0
  0
LTYPE
  2
ITEM-STRICHGR
 70
    64
  3
-- -- -- -- -- 
 72
    65
 73
     2
 40
6.25
 49
5.0
 49
-1.25
  0
LTYPE
  2
ITEM-STRICHPGR
 70
    64
  3
____ . ____ . ____ . ____ . ____ . ____ . ____
 72
    65
 73
     4
 40
15.0
 49
10.0
 49
-2.5
 49
0.0
 49
-2.5
  0
ENDTAB
  0
TABLE
  2
LAYER
 70
     5
  0
LAYER
  2
0
 70
    64
 62
     7
  6
GEN
  0
LAYER
  2
ITEM_50
 70
    64
 62
     7
  6
CONTINUOUS
  0
LAYER
  2
ITEM_25
 70
    64
 62
     3
  6
CONTINUOUS
  0
LAYER
  2
ITEM_STPG
 70
    64
 62
     4
  6
ITEM-STRICHPGR
  0
LAYER
  2
ITEM_GSTRG
 70
    64
 62
     6
  6
ITEM-STRICHGR
  0
ENDTAB
  0
TABLE
  2
STYLE
 70
     1
  0
STYLE
  2
STANDARD
 70
     0
 40
0.0
 41
1.0
 50
0.0
 71
     0
 42
45.0
  3
ISO8
  4

  0
ENDTAB
  0
TABLE
  2
VIEW
 70
     0
  0
ENDTAB
  0
TABLE
  2
UCS
 70
     0
  0
ENDTAB
  0
TABLE
  2
APPID
 70
     1
  0
APPID
  2
ACAD
 70
    64
  0
ENDTAB
  0
TABLE
  2
DIMSTYLE
 70
     0
  0
ENDTAB
  0
ENDSEC
  0
SECTION
  2
BLOCKS
  0
BLOCK
  8
0
  2
02606B
 70
    64
 10
0.0
 20
0.0
 30
0.0
  3
02606B
  0
ENDBLK
  8
0
  0
BLOCK
  8
0
  2
02618B
 70
    64
 10
0.0
 20
0.0
 30
0.0
  3
02618B
  0
ENDBLK
  8
0
  0
ENDSEC
  0
SECTION
  2
ENTITIES
  0
LINE
  8
ITEM_50
 10
550.9049378653975
 20
271.9237217016652
 30
0.0
 11
550.9049378653975
 21
155.9237217016652
 31
0.0
  0
LINE
  8
ITEM_50
 10
552.9049378653975
 20
153.9237217016652
 30
0.0
 11
592.9049378653976
 21
153.9237217016652
 31
0.0
  0
ARC
  8
ITEM_50
 10
552.9049378653975
 20
155.9237217016652
 30
0.0
 40
2.0
 50
180.0
 51
270.0
  0
ARC
  8
ITEM_50
 10
552.9049378653975
 20
271.9237217016652
 30
0.0
 40
2.0
 50
90.0
 51
180.0
  0
LINE
  8
ITEM_50
 10
592.9049378653976
 20
273.9237217016652
 30
0.0
 11
552.9049378653975
 21
273.9237217016652
 31
0.0
  0
ARC
  8
ITEM_50
 10
592.9049378653975
 20
271.9237217016652
 30
0.0
 40
2.0
 50
0.0
 51
90.0
  0
LINE
  8
ITEM_50
 10
594.9049378653976
 20
155.9237217016652
 30
0.0
 11
594.9049378653976
 21
271.9237217016652
 31
0.0
  0
LINE
  8
ITEM_STPG
 10
568.9049378653975
 20
203.4237217016652
 30
0.0
 11
586.9049378653975
 21
203.4237217016652
 31
0.0
  0
LINE
  8
ITEM_STPG
 10
562.9049378653975
 20
257.9237217016652
 30
0.0
 11
562.9049378653975
 21
235.4237217016652
 31
0.0
  0
LINE
  8
ITEM_STPG
 10
562.9049378653975
 20
169.9237217016652
 30
0.0
 11
562.9049378653975
 21
190.9237217016652
 31
0.0
  0
LINE
  8
ITEM_STPG
 10
550.9049378653975
 20
245.9237217016652
 30
0.0
 11
599.9049378653976
 21
245.9237217016652
 31
0.0
  0
LINE
  8
ITEM_STPG
 10
550.9049378653975
 20
181.9237217016652
 30
0.0
 11
597.4077114444323
 21
181.9237217016652
 31
0.0
  0
LINE
  8
ITEM_STPG
 10
586.9049378653975
 20
218.7737217016652
 30
0.0
 11
586.9049378653975
 21
236.0243312016652
 31
0.0
  0
LINE
  8
ITEM_STPG
 10
586.9049378653975
 20
209.0737217016652
 30
0.0
 11
586.9049378653975
 21
191.8090377016652
 31
0.0
  0
LINE
  8
ITEM_STPG
 10
578.9049378653975
 20
226.9237217016652
 30
0.0
 11
594.9049378653976
 21
226.9237217016652
 31
0.0
  0
LINE
  8
ITEM_STPG
 10
578.9049378653975
 20
200.9237217016652
 30
0.0
 11
594.9049378653976
 21
200.9237217016652
 31
0.0
  0
CIRCLE
  8
ITEM_50
 10
570.9049378653975
 20
245.9237217016652
 30
0.0
 40
3.149999999999999
  0
CIRCLE
  8
ITEM_50
 10
562.9049378653975
 20
245.9237217016652
 30
0.0
 40
3.149999999999999
  0
CIRCLE
  8
ITEM_50
 10
570.9049378653975
 20
181.9237217016652
 30
0.0
 40
3.149999999999999
  0
CIRCLE
  8
ITEM_50
 10
562.9049378653975
 20
181.9237217016652
 30
0.0
 40
3.149999999999999
  0
LINE
  8
ITEM_50
 10
562.9049378653975
 20
251.4237217016652
 30
0.0
 11
570.9049378653975
 21
251.4237217016652
 31
0.0
  0
LINE
  8
ITEM_50
 10
562.9049378653975
 20
240.4237217016652
 30
0.0
 11
570.9049378653975
 21
240.4237217016652
 31
0.0
  0
LINE
  8
ITEM_50
 10
562.9049378653975
 20
187.4237217016652
 30
0.0
 11
570.9049378653975
 21
187.4237217016652
 31
0.0
  0
LINE
  8
ITEM_50
 10
562.9049378653975
 20
176.4237217016652
 30
0.0
 11
570.9049378653975
 21
176.4237217016652
 31
0.0
  0
ARC
  8
ITEM_50
 10
562.9049378653975
 20
181.9237217016652
 30
0.0
 40
5.5
 50
90.0
 51
270.0
  0
ARC
  8
ITEM_50
 10
562.9049378653975
 20
245.9237217016652
 30
0.0
 40
5.5
 50
90.0
 51
270.0
  0
ARC
  8
ITEM_50
 10
570.9049378653975
 20
245.9237217016652
 30
0.0
 40
5.5
 50
270.0
 51
90.0
  0
ARC
  8
ITEM_50
 10
570.9049378653975
 20
181.9237217016652
 30
0.0
 40
5.5
 50
270.0
 51
90.0
  0
ARC
  8
ITEM_50
 10
572.9049378653975
 20
189.9237217016652
 30
0.0
 40
1.0
 50
270.0
 51
0.0
  0
ARC
  8
ITEM_50
 10
572.9049378653975
 20
237.9237217016652
 30
0.0
 40
1.0
 50
0.0
 51
90.0
  0
ARC
  8
ITEM_50
 10
558.4049378653975
 20
237.9237217016652
 30
0.0
 40
1.0
 50
90.0
 51
180.0
  0
ARC
  8
ITEM_50
 10
558.4049378653975
 20
189.9237217016652
 30
0.0
 40
1.0
 50
180.0
 51
270.0
  0
LINE
  8
ITEM_50
 10
573.9049378653975
 20
189.9237217016652
 30
0.0
 11
573.9049378653975
 21
237.9237217016652
 31
0.0
  0
LINE
  8
ITEM_50
 10
557.4049378653975
 20
189.9237217016652
 30
0.0
 11
557.4049378653975
 21
237.9237217016652
 31
0.0
  0
ARC
  8
ITEM_50
 10
572.9049378653975
 20
269.9237217016652
 30
0.0
 40
2.0
 50
0.0
 51
90.0
  0
ARC
  8
ITEM_50
 10
572.9049378653975
 20
260.9237217016652
 30
0.0
 40
2.0
 50
270.0
 51
0.0
  0
ARC
  8
ITEM_50
 10
568.9049378653975
 20
269.9237217016652
 30
0.0
 40
2.0
 50
90.0
 51
180.0
  0
ARC
  8
ITEM_50
 10
568.9049378653975
 20
260.9237217016652
 30
0.0
 40
2.0
 50
180.0
 51
270.0
  0
ARC
  8
ITEM_50
 10
572.9049378653975
 20
166.9237217016652
 30
0.0
 40
2.0
 50
0.0
 51
90.0
  0
ARC
  8
ITEM_50
 10
572.9049378653975
 20
157.9237217016652
 30
0.0
 40
2.0
 50
270.0
 51
0.0
  0
ARC
  8
ITEM_50
 10
568.9049378653975
 20
166.9237217016652
 30
0.0
 40
2.0
 50
90.0
 51
180.0
  0
ARC
  8
ITEM_50
 10
568.9049378653975
 20
157.9237217016652
 30
0.0
 40
2.0
 50
180.0
 51
270.0
  0
LINE
  8
ITEM_50
 10
574.9049378653975
 20
260.9237217016652
 30
0.0
 11
574.9049378653975
 21
269.9237217016652
 31
0.0
  0
LINE
  8
ITEM_50
 10
566.9049378653975
 20
260.9237217016652
 30
0.0
 11
566.9049378653975
 21
269.9237217016652
 31
0.0
  0
LINE
  8
ITEM_50
 10
574.9049378653975
 20
166.9237217016652
 30
0.0
 11
574.9049378653975
 21
157.9237217016652
 31
0.0
  0
LINE
  8
ITEM_50
 10
566.9049378653975
 20
157.9237217016652
 30
0.0
 11
566.9049378653975
 21
166.9237217016652
 31
0.0
  0
LINE
  8
ITEM_STPG
 10
570.9049378653975
 20
153.4382605917177
 30
0.0
 11
570.9049378653975
 21
170.4170527014645
 31
0.0
  0
LINE
  8
ITEM_STPG
 10
558.6810183653975
 20
213.9237217016652
 30
0.0
 11
597.8199628936129
 21
213.9237217016652
 31
0.0
  0
LINE
  8
ITEM_50
 10
568.9049378653975
 20
155.9237217016652
 30
0.0
 11
572.9049378653975
 21
155.9237217016652
 31
0.0
  0
LINE
  8
ITEM_50
 10
568.9049378653975
 20
168.9237217016652
 30
0.0
 11
572.9049378653975
 21
168.9237217016652
 31
0.0
  0
LINE
  8
ITEM_50
 10
558.4049378653975
 20
188.9237217016652
 30
0.0
 11
572.9049378653975
 21
188.9237217016652
 31
0.0
  0
LINE
  8
ITEM_50
 10
558.4049378653975
 20
238.9237217016652
 30
0.0
 11
572.9049378653975
 21
238.9237217016652
 31
0.0
  0
LINE
  8
ITEM_50
 10
568.9049378653975
 20
258.9237217016652
 30
0.0
 11
572.9049378653975
 21
258.9237217016652
 31
0.0
  0
LINE
  8
ITEM_50
 10
568.9049378653975
 20
271.9237217016652
 30
0.0
 11
572.9049378653975
 21
271.9237217016652
 31
0.0
  0
ARC
  8
ITEM_50
 10
592.9049378653975
 20
271.9237217016652
 30
0.0
 40
2.0
 50
0.0
 51
90.0
  0
ARC
  8
ITEM_50
 10
592.9049378653975
 20
271.9237217016652
 30
0.0
 40
2.0
 50
0.0
 51
90.0
  0
ARC
  8
ITEM_50
 10
592.9049378653975
 20
155.9237217016652
 30
0.0
 40
2.0
 50
270.0
 51
0.0
  0
ARC
  8
ITEM_50
 10
586.9049378653975
 20
200.9237217016652
 30
0.0
 40
5.5
 50
95.38002299999998
 51
144.6199769999999
  0
ARC
  8
ITEM_50
 10
586.9049378653975
 20
226.9237217016652
 30
0.0
 40
5.5
 50
95.38002299999998
 51
144.6199769999999
  0
CIRCLE
  8
ITEM_50
 10
586.9049378653975
 20
200.9237217016652
 30
0.0
 40
5.0
  0
POLYLINE
  8
ITEM_50
 66
     1
 10
0.0
 20
0.0
 30
0.0
 70
     1
  0
VERTEX
  8
ITEM_50
 10
581.9049378653975
 20
198.0369702016652
 30
0.0
 50
90.0
  0
VERTEX
  8
ITEM_50
 10
586.9049378653975
 20
195.1502187016652
 30
0.0
 50
90.0
  0
VERTEX
  8
ITEM_50
 10
591.9049378653975
 20
198.0369702016652
 30
0.0
 50
90.0
  0
VERTEX
  8
ITEM_50
 10
591.9049378653975
 20
203.8104727016652
 30
0.0
 50
90.0
  0
VERTEX
  8
ITEM_50
 10
586.9049378653975
 20
206.6972242016652
 30
0.0
 50
90.0
  0
VERTEX
  8
ITEM_50
 10
581.9049378653975
 20
203.8104727016652
 30
0.0
 50
90.0
  0
SEQEND
  8
ITEM_50
  0
CIRCLE
  8
ITEM_50
 10
586.9049378653975
 20
226.9237217016652
 30
0.0
 40
5.0
  0
POLYLINE
  8
ITEM_50
 66
     1
 10
0.0
 20
0.0
 30
0.0
 70
     1
  0
VERTEX
  8
ITEM_50
 10
581.9049378653975
 20
224.0369702016652
 30
0.0
 50
90.0
  0
VERTEX
  8
ITEM_50
 10
586.9049378653975
 20
221.1502187016652
 30
0.0
 50
90.0
  0
VERTEX
  8
ITEM_50
 10
591.9049378653975
 20
224.0369702016652
 30
0.0
 50
90.0
  0
VERTEX
  8
ITEM_50
 10
591.9049378653975
 20
229.8104727016652
 30
0.0
 50
90.0
  0
VERTEX
  8
ITEM_50
 10
586.9049378653975
 20
232.6972242016652
 30
0.0
 50
90.0
  0
VERTEX
  8
ITEM_50
 10
581.9049378653975
 20
229.8104727016652
 30
0.0
 50
90.0
  0
SEQEND
  8
ITEM_50
  0
ARC
  8
ITEM_25
 10
586.9049378653975
 20
200.9237217016652
 30
0.0
 40
2.299999999999999
 50
261.0
 51
189.0
  0
CIRCLE
  8
ITEM_50
 10
586.9049378653975
 20
200.9237217016652
 30
0.0
 40
3.0
  0
ARC
  8
ITEM_25
 10
586.9049378653975
 20
226.9237217016652
 30
0.0
 40
2.299999999999999
 50
261.0
 51
189.0
  0
CIRCLE
  8
ITEM_50
 10
586.9049378653975
 20
226.9237217016652
 30
0.0
 40
3.0
  0
ARC
  8
ITEM_50
 10
586.9049378653975
 20
200.9237217016652
 30
0.0
 40
5.5
 50
155.380023
 51
204.619977
  0
ARC
  8
ITEM_50
 10
586.9049378653975
 20
200.9237217016652
 30
0.0
 40
5.5
 50
215.3800229999999
 51
264.619977
  0
ARC
  8
ITEM_50
 10
586.9049378653975
 20
200.9237217016652
 30
0.0
 40
5.5
 50
275.3800229999999
 51
324.619977
  0
ARC
  8
ITEM_50
 10
586.9049378653975
 20
200.9237217016652
 30
0.0
 40
5.5
 50
335.3800229999999
 51
24.61997700000003
  0
ARC
  8
ITEM_50
 10
586.9049378653975
 20
200.9237217016652
 30
0.0
 40
5.5
 50
35.380023
 51
84.61997700000002
  0
ARC
  8
ITEM_50
 10
586.9049378653975
 20
226.9237217016652
 30
0.0
 40
5.5
 50
155.380023
 51
204.619977
  0
ARC
  8
ITEM_50
 10
586.9049378653975
 20
226.9237217016652
 30
0.0
 40
5.5
 50
215.3800229999999
 51
264.619977
  0
ARC
  8
ITEM_50
 10
586.9049378653975
 20
226.9237217016652
 30
0.0
 40
5.5
 50
275.3800229999999
 51
324.619977
  0
ARC
  8
ITEM_50
 10
586.9049378653975
 20
226.9237217016652
 30
0.0
 40
5.5
 50
335.3800229999999
 51
24.61997700000003
  0
ARC
  8
ITEM_50
 10
586.9049378653975
 20
226.9237217016652
 30
0.0
 40
5.5
 50
35.380023
 51
84.61997700000002
  0
LINE
  8
ITEM_STPG
 10
576.9049378653975
 20
267.9237217016652
 30
0.0
 11
564.9049378653975
 21
267.9237217016652
 31
0.0
  0
LINE
  8
ITEM_STPG
 10
576.9049378653975
 20
262.9237217016652
 30
0.0
 11
564.9049378653975
 21
262.9237217016652
 31
0.0
  0
CIRCLE
  8
ITEM_50
 10
570.9049378653975
 20
267.9237217016652
 30
0.0
 40
2.0
  0
CIRCLE
  8
ITEM_50
 10
570.9049378653975
 20
262.9237217016652
 30
0.0
 40
2.0
  0
CIRCLE
  8
ITEM_50
 10
570.9049378653975
 20
164.9237217016652
 30
0.0
 40
2.0
  0
CIRCLE
  8
ITEM_50
 10
570.9049378653975
 20
159.9237217016652
 30
0.0
 40
2.0
  0
LINE
  8
ITEM_STPG
 10
576.9049378653975
 20
159.9237217016652
 30
0.0
 11
564.9049378653975
 21
159.9237217016652
 31
0.0
  0
LINE
  8
ITEM_STPG
 10
576.9049378653975
 20
164.9237217016652
 30
0.0
 11
564.9049378653975
 21
164.9237217016652
 31
0.0
  0
LINE
  8
ITEM_50
 10
570.5677593653975
 20
204.0436247016652
 30
0.0
 11
568.9049378653975
 21
204.0436247016652
 31
0.0
  0
LINE
  8
ITEM_50
 10
573.9049378653975
 20
215.5237217016652
 30
0.0
 11
568.9049378653975
 21
215.5237217016652
 31
0.0
  0
LINE
  8
ITEM_50
 10
568.9049378653975
 20
221.9687647016652
 30
0.0
 11
568.9049378653975
 21
204.0436247016652
 31
0.0
  0
LINE
  8
ITEM_STPG
 10
570.9049378653975
 20
257.4025810341025
 30
0.0
 11
570.9049378653975
 21
274.5427288557905
 31
0.0
  0
LINE
  8
ITEM_25
 10
573.9049378653975
 20
205.2236247016652
 30
0.0
 11
568.9049378653975
 21
205.2236247016652
 31
0.0
  0
LINE
  8
ITEM_50
 10
571.4049378653975
 20
221.9687647016652
 30
0.0
 11
571.4049378653975
 21
204.9237217016652
 31
0.0
  0
LINE
  8
ITEM_50
 10
564.4049378653975
 20
205.6737217016652
 30
0.0
 11
564.4049378653975
 21
222.1737217016652
 31
0.0
  0
LINE
  8
ITEM_50
 10
565.4049378653975
 20
223.4237217016652
 30
0.0
 11
567.9049378653975
 21
223.4237217016652
 31
0.0
  0
LINE
  8
ITEM_50
 10
567.9049378653975
 20
204.4237217016652
 30
0.0
 11
565.4049378653975
 21
204.4237217016652
 31
0.0
  0
LINE
  8
ITEM_50
 10
565.4049378653975
 20
209.1737217016652
 30
0.0
 11
567.9049378653975
 21
209.1737217016652
 31
0.0
  0
LINE
  8
ITEM_50
 10
565.4049378653975
 20
218.6737217016652
 30
0.0
 11
567.9049378653975
 21
218.6737217016652
 31
0.0
  0
LINE
  8
ITEM_50
 10
564.4049378653975
 20
205.6737217016652
 30
0.0
 11
562.9049378653975
 21
205.6737217016652
 31
0.0
  0
LINE
  8
ITEM_50
 10
561.4049378653975
 20
207.1737217016652
 30
0.0
 11
561.4049378653975
 21
220.6737217016652
 31
0.0
  0
LINE
  8
ITEM_50
 10
564.4049378653975
 20
222.1737217016652
 30
0.0
 11
562.9049378653975
 21
222.1737217016652
 31
0.0
  0
ARC
  8
ITEM_50
 10
562.9049378653975
 20
207.1737217016652
 30
0.0
 40
1.5
 50
180.0
 51
270.0
  0
ARC
  8
ITEM_50
 10
562.9049378653975
 20
220.6737217016652
 30
0.0
 40
1.5
 50
90.0
 51
180.0
  0
ARC
  8
ITEM_50
 10
576.1861878653975
 20
213.9237217016652
 30
0.0
 40
11.78125
 50
156.2226839999999
 51
203.7773159999999
  0
ARC
  8
ITEM_50
 10
557.1236878653975
 20
213.9237217016652
 30
0.0
 40
11.78125
 50
336.2226839999999
 51
23.77731599999997
  0
ARC
  8
ITEM_50
 10
567.7055943653975
 20
206.7987217016652
 30
0.0
 40
3.3066065
 50
134.0890669999999
 51
225.910933
  0
ARC
  8
ITEM_50
 10
565.6042813653975
 20
206.7987217016652
 30
0.0
 40
3.3066065
 50
314.089067
 51
45.91093299999999
  0
ARC
  8
ITEM_50
 10
567.7055943653975
 20
221.0487217016652
 30
0.0
 40
3.3066065
 50
134.0890669999999
 51
225.910933
  0
ARC
  8
ITEM_50
 10
565.6042813653975
 20
221.0487217016652
 30
0.0
 40
3.3066065
 50
314.089067
 51
45.91093299999999
  0
LINE
  8
ITEM_50
 10
565.0765728653975
 20
204.7932562016652
 30
0.0
 11
564.4049378653975
 21
205.6737217016652
 31
0.0
  0
LINE
  8
ITEM_50
 10
564.4049378653975
 20
222.1737217016652
 30
0.0
 11
565.0765728653975
 21
223.0541872016652
 31
0.0
  0
LINE
  8
ITEM_50
 10
570.9049378653975
 20
201.9237217016652
 30
0.0
 11
570.9049378653975
 21
204.9237217016652
 31
0.0
  0
LINE
  8
ITEM_50
 10
572.0781428653975
 20
201.8237217016652
 30
0.0
 11
573.9049378653975
 21
201.8237217016652
 31
0.0
  0
LINE
  8
ITEM_50
 10
572.0781428653975
 20
205.0237217016652
 30
0.0
 11
573.9049378653975
 21
205.0237217016652
 31
0.0
  0
LINE
  8
ITEM_50
 10
570.9049378653975
 20
201.9237217016652
 30
0.0
 11
571.9049378653975
 21
201.9237217016652
 31
0.0
  0
LINE
  8
ITEM_50
 10
572.0781428653975
 20
205.0237217016652
 30
0.0
 11
571.9049378653975
 21
204.9237217016652
 31
0.0
  0
ARC
  8
ITEM_50
 10
573.5030143653975
 20
203.4237217016652
 30
0.0
 40
3.0
 50
150.0
 51
210.0
  0
LINE
  8
ITEM_50
 10
570.9049378653975
 20
204.9237217016652
 30
0.0
 11
571.9049378653975
 21
204.9237217016652
 31
0.0
  0
LINE
  8
ITEM_50
 10
572.0781428653975
 20
201.8237217016652
 30
0.0
 11
571.9049378653975
 21
201.9237217016652
 31
0.0
  0
LINE
  8
ITEM_50
 10
596.4049378653976
 20
206.9237217016652
 30
0.0
 11
596.4049378653976
 21
220.9237217016652
 31
0.0
  0
LINE
  8
ITEM_50
 10
594.9049378653976
 20
205.9237217016652
 30
0.0
 11
595.4049378653976
 21
205.9237217016652
 31
0.0
  0
LINE
  8
ITEM_50
 10
594.9049378653976
 20
221.9237217016652
 30
0.0
 11
595.4049378653976
 21
221.9237217016652
 31
0.0
  0
LINE
  8
ITEM_50
 10
595.4049378653976
 20
205.9237217016652
 30
0.0
 11
595.4049378653976
 21
221.9237217016652
 31
0.0
  0
LINE
  8
ITEM_50
 10
595.4049378653976
 20
205.9237217016652
 30
0.0
 11
596.4049378653976
 21
206.9237217016652
 31
0.0
  0
LINE
  8
ITEM_50
 10
596.4049378653976
 20
220.9237217016652
 30
0.0
 11
595.4049378653976
 21
221.9237217016652
 31
0.0
  0
INSERT
  8
0
  2
02606B
 10
228.3945779999999
 20
423.156627
 30
0.0
  0
INSERT
  8
0
  2
02606B
 10
120.746988
 20
451.4849399999999
 30
0.0
  0
INSERT
  8
0
  2
02618B
 10
94.50602399999999
 20
384.0933729999999
 30
0.0
  0
POLYLINE
  8
ITEM_50
 66
     1
 10
0.0
 20
0.0
 30
0.0
  0
VERTEX
  8
ITEM_50
 10
468.5038895073923
 20
245.9687647016652
 30
0.0
 42
-0.1465460930051603
 50
90.0
  0
VERTEX
  8
ITEM_50
 10
468.2069801267335
 20
244.2054277016652
 30
0.0
 42
-0.103857
 70
     2
 50
116.2320299999999
  0
VERTEX
  8
ITEM_50
 10
467.7529996267335
 20
243.6262512016652
 30
0.0
 42
-0.176555
 50
90.0
  0
VERTEX
  8
ITEM_50
 10
467.3380811267335
 20
243.4750252016652
 30
0.0
 42
-0.176555
 50
90.0
  0
SEQEND
  8
ITEM_50
  0
POLYLINE
  8
ITEM_50
 66
     1
 10
0.0
 20
0.0
 30
0.0
  0
VERTEX
  8
ITEM_50
 10
467.3380811267335
 20
248.4625252016652
 30
0.0
 42
-0.176555
 50
90.0
  0
VERTEX
  8
ITEM_50
 10
467.7529996267335
 20
248.3112997016652
 30
0.0
 42
-0.103857
 50
90.0
  0
VERTEX
  8
ITEM_50
 10
468.2069801267335
 20
247.7321232016652
 30
0.0
 42
-0.1465478686883685
 70
     2
 50
63.76797000000001
  0
VERTEX
  8
ITEM_50
 10
468.5038868230659
 20
245.9687647016652
 30
0.0
 42
-0.050378
 50
90.0
  0
SEQEND
  8
ITEM_50
  0
POLYLINE
  8
ITEM_50
 66
     1
 10
0.0
 20
0.0
 30
0.0
  0
VERTEX
  8
ITEM_50
 10
468.5038895073922
 20
181.9687647016652
 30
0.0
 42
0.1465460930051544
  0
VERTEX
  8
ITEM_50
 10
468.2069801267335
 20
183.7321017016652
 30
0.0
 42
0.103857
 70
     2
 50
116.2320299999999
  0
VERTEX
  8
ITEM_50
 10
467.7529996267335
 20
184.3112787016652
 30
0.0
 42
0.176555
 50
116.2320299999999
  0
VERTEX
  8
ITEM_50
 10
467.3380811267335
 20
184.4625042016652
 30
0.0
 42
0.176555
  0
SEQEND
  8
ITEM_50
  0
POLYLINE
  8
ITEM_50
 66
     1
 10
0.0
 20
0.0
 30
0.0
  0
VERTEX
  8
ITEM_50
 10
467.3380811267335
 20
179.4750042016652
 30
0.0
 42
0.176555
  0
VERTEX
  8
ITEM_50
 10
467.7529996267335
 20
179.6262297016652
 30
0.0
 42
0.103857
  0
VERTEX
  8
ITEM_50
 10
468.2069801267335
 20
180.2054067016652
 30
0.0
 42
0.1465480431058107
 70
     2
 50
63.76797000000001
  0
VERTEX
  8
ITEM_50
 10
468.5038871919476
 20
181.9687647016652
 30
0.0
 42
0.050378
 50
63.76797000000001
  0
SEQEND
  8
ITEM_50
  0
LINE
  8
ITEM_STPG
 10
463.6065488803714
 20
235.9687752016652
 30
0.0
 11
476.1758798067386
 21
235.9687752016652
 31
0.0
  0
LINE
  8
ITEM_50
 10
467.5380811267335
 20
252.4687752016652
 30
0.0
 11
467.3380811267335
 21
252.2687752016652
 31
0.0
  0
LINE
  8
ITEM_50
 10
474.6380811267335
 20
252.2687752016652
 30
0.0
 11
474.4380811267336
 21
252.4687752016652
 31
0.0
  0
LINE
  8
ITEM_50
 10
474.4380811267336
 20
229.4687752016652
 30
0.0
 11
474.6380811267335
 21
229.6687752016652
 31
0.0
  0
LINE
  8
ITEM_50
 10
467.3380811267335
 20
229.6687752016652
 30
0.0
 11
467.5380811267335
 21
229.4687752016652
 31
0.0
  0
LINE
  8
ITEM_50
 10
467.3380811267335
 20
248.9687752016652
 30
0.0
 11
467.3380811267335
 21
252.2687752016652
 31
0.0
  0
LINE
  8
ITEM_50
 10
467.3380811267335
 20
248.4625252016652
 30
0.0
 11
467.3380811267335
 21
248.9687752016652
 31
0.0
  0
LINE
  8
ITEM_50
 10
467.3380811267335
 20
238.0326332016595
 30
0.0
 11
467.3380811267335
 21
243.4750252016652
 31
0.0
  0
LINE
  8
ITEM_50
 10
467.3380811267335
 20
229.6687752016652
 30
0.0
 11
467.3380811267335
 21
233.9187752016652
 31
0.0
  0
LINE
  8
ITEM_50
 10
474.4380811267336
 20
229.4687752016652
 30
0.0
 11
467.5380811267335
 21
229.4687752016652
 31
0.0
  0
LINE
  8
ITEM_50
 10
467.5380811267335
 20
252.4687752016652
 30
0.0
 11
474.4380811267336
 21
252.4687752016652
 31
0.0
  0
LINE
  8
ITEM_50
 10
474.6380811267335
 20
252.2687752016653
 30
0.0
 11
474.6380811267335
 21
229.6687752016652
 31
0.0
  0
ARC
  8
ITEM_50
 10
468.3382191267335
 20
235.9757042016652
 30
0.0
 40
2.0
 50
112.3798063231618
 51
247.6201936768381
  0
POLYLINE
  8
ITEM_50
 66
     1
 10
0.0
 20
0.0
 30
0.0
  0
VERTEX
  8
ITEM_50
 10
467.5767301267335
 20
234.1263437016652
 30
0.0
 42
-0.019578
 70
     2
 50
105.4152489999999
  0
VERTEX
  8
ITEM_50
 10
467.5043786267335
 20
234.0078487016652
 30
0.0
 42
-0.250947
 50
90.0
  0
VERTEX
  8
ITEM_50
 10
467.3380811267335
 20
233.9187752016652
 30
0.0
 42
-0.250947
 50
90.0
  0
SEQEND
  8
ITEM_50
  0
ARC
  8
ITEM_50
 10
468.3382191267335
 20
191.9618252016652
 30
0.0
 40
2.0
 50
112.3798063231633
 51
247.6201936768368
  0
LINE
  8
ITEM_50
 10
467.3380811267335
 20
186.2937542016652
 30
0.0
 11
467.3380811267335
 21
184.4625042016652
 31
0.0
  0
LINE
  8
ITEM_50
 10
474.6380811267335
 20
175.6687542016652
 30
0.0
 11
474.6380811267335
 21
198.2687542016652
 31
0.0
  0
LINE
  8
ITEM_50
 10
467.3380811267335
 20
188.5154922016652
 30
0.0
 11
467.3380811267335
 21
186.9687542016652
 31
0.0
  0
LINE
  8
ITEM_50
 10
467.5380811267335
 20
175.4687542016652
 30
0.0
 11
474.4380811267336
 21
175.4687542016652
 31
0.0
  0
LINE
  8
ITEM_50
 10
474.4380811267336
 20
198.4687542016652
 30
0.0
 11
467.5380811267335
 21
198.4687542016652
 31
0.0
  0
LINE
  8
ITEM_50
 10
467.3380811267335
 20
198.2687542016652
 30
0.0
 11
467.3380811267335
 21
194.0187542016778
 31
0.0
  0
LINE
  8
ITEM_50
 10
467.3380811267335
 20
186.9687542016652
 30
0.0
 11
467.3380811267335
 21
186.2937542016652
 31
0.0
  0
LINE
  8
ITEM_50
 10
467.3380811267335
 20
179.4750042016652
 30
0.0
 11
467.3380811267335
 21
178.9687542016652
 31
0.0
  0
LINE
  8
ITEM_50
 10
467.3380811267335
 20
178.9687542016652
 30
0.0
 11
467.3380811267335
 21
175.6687542016652
 31
0.0
  0
LINE
  8
ITEM_50
 10
467.3380811267335
 20
198.2687542016652
 30
0.0
 11
467.5380811267335
 21
198.4687542016652
 31
0.0
  0
LINE
  8
ITEM_50
 10
474.4380811267336
 20
198.4687542016652
 30
0.0
 11
474.6380811267335
 21
198.2687542016652
 31
0.0
  0
LINE
  8
ITEM_50
 10
474.6380811267335
 20
175.6687542016652
 30
0.0
 11
474.4380811267336
 21
175.4687542016652
 31
0.0
  0
LINE
  8
ITEM_50
 10
467.5380811267335
 20
175.4687542016652
 30
0.0
 11
467.3380811267335
 21
175.6687542016652
 31
0.0
  0
LINE
  8
ITEM_STPG
 10
464.258110848683
 20
191.9687542016652
 30
0.0
 11
475.8181026648916
 21
191.9687542016652
 31
0.0
  0
ARC
  8
ITEM_GSTRG
 10
489.1629406267335
 20
213.9670057016652
 30
0.0
 40
8.699999999999999
 50
175.5478039999999
 51
271.152282
  0
LINE
  8
ITEM_GSTRG
 10
500.0500381267335
 20
203.4687647016652
 30
0.0
 11
490.9253459133713
 21
203.4687647016652
 31
0.0
  0
LINE
  8
ITEM_STPG
 10
502.3378951267335
 20
267.9687647016652
 30
0.0
 11
465.755692000797
 21
267.9687647016652
 31
0.0
  0
LINE
  8
ITEM_STPG
 10
502.3378951267335
 20
262.9687647016652
 30
0.0
 11
466.2214375908314
 21
262.9687647016652
 31
0.0
  0
LINE
  8
ITEM_50
 10
469.3378951267335
 20
258.9687647016652
 30
0.0
 11
478.8378951267335
 21
258.9687647016652
 31
0.0
  0
LINE
  8
ITEM_50
 10
469.3378951267335
 20
271.9687647016652
 30
0.0
 11
478.8378951267335
 21
271.9687647016652
 31
0.0
  0
LINE
  8
ITEM_50
 10
467.3378951267335
 20
269.9687647016652
 30
0.0
 11
467.3378951267335
 21
260.9687647016652
 31
0.0
  0
ARC
  8
ITEM_50
 10
469.3378951267335
 20
269.9687647016652
 30
0.0
 40
2.0
 50
90.0
 51
180.0
  0
ARC
  8
ITEM_50
 10
469.3378951267335
 20
260.9687647016652
 30
0.0
 40
2.0
 50
180.0
 51
270.0
  0
LINE
  8
ITEM_50
 10
478.8378951267335
 20
155.9687647016652
 30
0.0
 11
478.8378951267335
 21
271.9687647016652
 31
0.0
  0
LINE
  8
ITEM_50
 10
499.8378951267335
 20
155.9687647016652
 30
0.0
 11
499.8378951267335
 21
271.8547822016652
 31
0.0
  0
LINE
  8
ITEM_50
 10
497.8378951267335
 20
153.9687647016652
 30
0.0
 11
489.3378951267335
 21
153.9687647016652
 31
0.0
  0
LINE
  8
ITEM_50
 10
489.3378951267335
 20
273.9687647016652
 30
0.0
 11
497.8378951267335
 21
273.9687647016652
 31
0.0
  0
ARC
  8
ITEM_50
 10
497.8378951267335
 20
271.9687647016652
 30
0.0
 40
2.0
 50
0.0
 51
90.0
  0
ARC
  8
ITEM_50
 10
497.8378951267335
 20
155.9687647016652
 30
0.0
 40
2.0
 50
270.0
 51
0.0
  0
LINE
  8
ITEM_STPG
 10
465.8991636174843
 20
159.9687647016652
 30
0.0
 11
501.1153862776761
 21
159.9687647016652
 31
0.0
  0
LINE
  8
ITEM_STPG
 10
465.8767241260133
 20
164.9687647016652
 30
0.0
 11
500.5947981641738
 21
164.9687647016652
 31
0.0
  0
ARC
  8
ITEM_50
 10
469.3378951267335
 20
157.9687647016652
 30
0.0
 40
2.0
 50
180.0
 51
270.0
  0
ARC
  8
ITEM_50
 10
469.3378951267335
 20
166.9687647016652
 30
0.0
 40
2.0
 50
90.0
 51
180.0
  0
LINE
  8
ITEM_50
 10
467.3378951267335
 20
166.9687647016652
 30
0.0
 11
467.3378951267335
 21
157.9687647016652
 31
0.0
  0
LINE
  8
ITEM_50
 10
469.3378951267335
 20
168.9687647016652
 30
0.0
 11
478.8378951267335
 21
168.9687647016652
 31
0.0
  0
LINE
  8
ITEM_50
 10
469.3378951267335
 20
155.9687647016652
 30
0.0
 11
478.8378951267326
 21
155.9687647016652
 31
0.0
  0
LINE
  8
ITEM_STPG
 10
465.3165806267335
 20
245.9687647016652
 30
0.0
 11
501.1229955496578
 21
245.9687647016652
 31
0.0
  0
LINE
  8
ITEM_STPG
 10
503.7979221267335
 20
181.9687647016652
 30
0.0
 11
465.1633001267335
 21
181.9687647016652
 31
0.0
  0
ARC
  8
ITEM_50
 10
480.8378951267335
 20
271.9687647016652
 30
0.0
 40
2.0
 50
90.0
 51
180.0
  0
ARC
  8
ITEM_50
 10
480.8378951267335
 20
155.9687647016652
 30
0.0
 40
2.0
 50
180.0
 51
270.0
  0
LINE
  8
ITEM_50
 10
489.3378951267335
 20
153.9687647016652
 30
0.0
 11
480.8378951267335
 21
153.9687647016652
 31
0.0
  0
LINE
  8
ITEM_50
 10
480.8378951267335
 20
273.9687647016652
 30
0.0
 11
489.3378951267335
 21
273.9687647016652
 31
0.0
  0
POLYLINE
  8
ITEM_GSTRG
 66
     1
 10
0.0
 20
0.0
 30
0.0
 70
     1
  0
VERTEX
  8
ITEM_GSTRG
 10
481.3378951267335
 20
209.3499627016652
 30
0.0
 50
90.0
  0
VERTEX
  8
ITEM_GSTRG
 10
489.3378951267335
 20
204.7311607016652
 30
0.0
 50
90.0
  0
VERTEX
  8
ITEM_GSTRG
 10
497.3378951267335
 20
209.3499627016652
 30
0.0
 50
90.0
  0
VERTEX
  8
ITEM_GSTRG
 10
497.3378951267335
 20
218.5875667016652
 30
0.0
 50
90.0
  0
VERTEX
  8
ITEM_GSTRG
 10
489.3378951267335
 20
223.2063692016652
 30
0.0
 50
90.0
  0
VERTEX
  8
ITEM_GSTRG
 10
481.3378951267335
 20
218.5875667016652
 30
0.0
 50
90.0
  0
SEQEND
  8
ITEM_GSTRG
  0
LINE
  8
ITEM_STPG
 10
489.3378951267335
 20
201.8687647016652
 30
0.0
 11
489.3378951267335
 21
228.9687647016652
 31
0.0
  0
LINE
  8
ITEM_50
 10
489.3378951267335
 20
273.9687647016652
 30
0.0
 11
489.3378951267335
 21
223.4687647016633
 31
0.0
  0
ARC
  8
ITEM_50
 10
507.9120711267335
 20
217.9687647016652
 30
0.0
 40
4.0
 50
12.153197
 51
90.0
  0
LINE
  8
ITEM_50
 10
499.8378951267335
 20
215.5687647016652
 30
0.0
 11
499.8378951267335
 21
224.6809072016652
 31
0.0
  0
LINE
  8
ITEM_GSTRG
 10
483.3378951267335
 20
221.9687647016652
 30
0.0
 11
499.8378951267335
 21
221.9687647016652
 31
0.0
  0
ARC
  8
ITEM_50
 10
489.3378951267335
 20
213.9687647016652
 30
0.0
 40
15.0
 50
315.5729959999999
 51
0.0
  0
ARC
  8
ITEM_GSTRG
 10
479.0378951267335
 20
213.9687647016652
 30
0.0
 40
1.6
 50
24.89766899999999
 51
74.78514799999997
  0
ARC
  8
ITEM_GSTRG
 10
489.3378951267335
 20
203.6687647016652
 30
0.0
 40
1.6
 50
352.8192442185376
 51
90.0
  0
ARC
  8
ITEM_GSTRG
 10
489.3378951267335
 20
213.9687647016652
 30
0.0
 40
10.0
 50
126.8698979999999
 51
171.1184779999999
  0
ARC
  8
ITEM_50
 10
506.8378951267335
 20
213.9687647016652
 30
0.0
 40
2.5
 50
0.0
 51
180.0
  0
LINE
  8
ITEM_STPG
 10
482.8378951267335
 20
203.4687647016652
 30
0.0
 11
494.3378951267335
 21
203.4687647016652
 31
0.0
  0
LINE
  8
ITEM_STPG
 10
501.7209927502134
 20
226.9687647016652
 30
0.0
 11
476.9770466947278
 21
226.9687647016652
 31
0.0
  0
LINE
  8
ITEM_STPG
 10
503.8011541267335
 20
200.9687647016652
 30
0.0
 11
477.4357322198391
 21
200.9687647016652
 31
0.0
  0
LINE
  8
ITEM_50
 10
489.3378951267335
 20
205.2687647016652
 30
0.0
 11
489.3378951267335
 21
205.0687647016652
 31
0.0
  0
LINE
  8
ITEM_STPG
 10
513.8567533871914
 20
213.9687647016652
 30
0.0
 11
476.6539471751257
 21
213.9687647016652
 31
0.0
  0
LINE
  8
ITEM_50
 10
504.3548951267335
 20
179.9687647016652
 30
0.0
 11
504.3548951267335
 21
187.9687647016652
 31
0.0
  0
LINE
  8
ITEM_50
 10
513.9378951267335
 20
180.9734022771352
 30
0.0
 11
513.9378951267335
 21
186.9641271261953
 31
0.0
  0
LINE
  8
ITEM_25
 10
514.1542791900867
 20
180.7357647016652
 30
0.0
 11
514.7048951267336
 21
180.7357647016652
 31
0.0
  0
LINE
  8
ITEM_25
 10
514.1542791900867
 20
187.2017647016652
 30
0.0
 11
514.7048951267336
 21
187.2017647016652
 31
0.0
  0
LINE
  8
ITEM_50
 10
503.5878951267335
 20
180.7357647016652
 30
0.0
 11
504.3548951267335
 21
179.9687647016652
 31
0.0
  0
LINE
  8
ITEM_50
 10
504.3548951267335
 20
179.9687647016652
 30
0.0
 11
507.8378951267336
 21
179.9687647016652
 31
0.0
  0
LINE
  8
ITEM_50
 10
514.4378608103545
 20
180.4687303852862
 30
0.0
 11
515.5878951267336
 21
181.6187647016652
 31
0.0
  0
LINE
  8
ITEM_50
 10
515.5878951267336
 20
181.6187647016652
 30
0.0
 11
515.5878951267336
 21
186.3187647016652
 31
0.0
  0
LINE
  8
ITEM_50
 10
515.5878951267336
 20
186.3187647016652
 30
0.0
 11
514.4378608103545
 21
187.4687990180442
 31
0.0
  0
LINE
  8
ITEM_50
 10
507.8378951267336
 20
187.9687647016652
 30
0.0
 11
504.3548951267335
 21
187.9687647016652
 31
0.0
  0
LINE
  8
ITEM_50
 10
504.3548951267335
 20
187.9687647016652
 30
0.0
 11
503.5878951267335
 21
187.2017647016652
 31
0.0
  0
LINE
  8
ITEM_50
 10
503.5878951267335
 20
187.2017647016652
 30
0.0
 11
503.5878951267335
 21
180.7357647016652
 31
0.0
  0
LINE
  8
ITEM_STPG
 10
502.3152656267336
 20
183.9687647016652
 30
0.0
 11
516.8431991267335
 21
183.9687647016652
 31
0.0
  0
ARC
  8
ITEM_50
 10
517.4661471267336
 20
183.9687647016652
 30
0.0
 40
4.6282565
 50
180.0
 51
239.7979019999999
  0
ARC
  8
ITEM_50
 10
517.4661471267336
 20
183.9687647016652
 30
0.0
 40
4.6282565
 50
120.2020979999999
 51
180.0
  0
ARC
  8
ITEM_50
 10
517.4661471267336
 20
197.9687647016652
 30
0.0
 40
4.6282565
 50
180.0
 51
239.7979019999999
  0
ARC
  8
ITEM_50
 10
517.4661471267336
 20
197.9687647016652
 30
0.0
 40
4.6282565
 50
120.2020979999999
 51
180.0
  0
LINE
  8
ITEM_STPG
 10
502.3152656267336
 20
197.9687647016652
 30
0.0
 11
516.8431991267335
 21
197.9687647016652
 31
0.0
  0
ARC
  8
ITEM_50
 10
518.5741751267336
 20
205.1291532016652
 30
0.0
 40
4.439178499999999
 50
182.0705619999999
 51
219.278288
  0
LINE
  8
ITEM_50
 10
513.0378951267335
 20
167.9687647016652
 30
0.0
 11
512.3378951267336
 21
167.9687647016652
 31
0.0
  0
LINE
  8
ITEM_50
 10
514.1378951267336
 20
169.9687647016652
 30
0.0
 11
513.0378951267335
 21
167.9687647016652
 31
0.0
  0
LINE
  8
ITEM_50
 10
514.1378951267336
 20
176.9687647016652
 30
0.0
 11
514.1378951267336
 21
169.9687647016652
 31
0.0
  0
LINE
  8
ITEM_50
 10
515.1378951267336
 20
179.9687647016652
 30
0.0
 11
515.1378951267336
 21
179.6187647016652
 31
0.0
  0
LINE
  8
ITEM_50
 10
515.1378951267336
 20
193.9687647016652
 30
0.0
 11
515.1378951267336
 21
193.0187647016652
 31
0.0
  0
LINE
  8
ITEM_50
 10
515.1378951267336
 20
202.3187647016652
 30
0.0
 11
515.1378951267336
 21
201.9687647016652
 31
0.0
  0
ARC
  8
ITEM_50
 10
518.5741751267336
 20
205.1291532016652
 30
0.0
 40
4.439178499999999
 50
219.278288
 51
219.278288
  0
LINE
  8
ITEM_50
 10
507.8378951267336
 20
167.9687647016652
 30
0.0
 11
507.8378951267335
 21
213.9687647016652
 31
0.0
  0
ARC
  8
ITEM_50
 10
518.4855316267335
 20
190.9687647016652
 30
0.0
 40
3.925451499999999
 50
148.51785
 51
180.0
  0
LINE
  8
ITEM_50
 10
515.1378951267336
 20
188.9187647016652
 30
0.0
 11
515.1378951267336
 21
187.9687647016652
 31
0.0
  0
ARC
  8
ITEM_50
 10
518.5741751267336
 20
176.8083762016652
 30
0.0
 40
4.439178499999999
 50
140.721712
 51
177.929438
  0
LINE
  8
ITEM_50
 10
512.3378951267336
 20
167.9687647016652
 30
0.0
 11
507.8378951267335
 21
167.9687647016652
 31
0.0
  0
LINE
  8
ITEM_STPG
 10
517.3225765437653
 20
190.9687647016652
 30
0.0
 11
506.3996354019759
 21
190.9687647016652
 31
0.0
  0
ARC
  8
ITEM_50
 10
514.1377076267335
 20
190.9756937016652
 30
0.0
 40
2.0
 50
295.4353257243623
 51
64.3820532127127
  0
ARC
  8
ITEM_50
 10
518.4855316267335
 20
190.9687647016652
 30
0.0
 40
3.925451499999999
 50
180.0
 51
211.4821499999999
  0
LINE
  8
ITEM_50
 10
503.5878951267335
 20
194.7357647016652
 30
0.0
 11
503.5878951267335
 21
201.2017647016652
 31
0.0
  0
LINE
  8
ITEM_50
 10
504.3548951267335
 20
193.9687647016652
 30
0.0
 11
503.5878951267335
 21
194.7357647016652
 31
0.0
  0
LINE
  8
ITEM_50
 10
507.8378951267336
 20
193.9687647016652
 30
0.0
 11
504.3548951267335
 21
193.9687647016652
 31
0.0
  0
LINE
  8
ITEM_50
 10
515.5878951267336
 20
195.6187647016652
 30
0.0
 11
514.4378608103534
 21
194.4687303852851
 31
0.0
  0
LINE
  8
ITEM_50
 10
515.5878951267336
 20
200.3187647016652
 30
0.0
 11
515.5878951267336
 21
195.6187647016652
 31
0.0
  0
LINE
  8
ITEM_50
 10
514.4378608103545
 20
201.4687990180442
 30
0.0
 11
515.5878951267336
 21
200.3187647016652
 31
0.0
  0
LINE
  8
ITEM_50
 10
504.3548951267335
 20
201.9687647016652
 30
0.0
 11
507.8378951267336
 21
201.9687647016652
 31
0.0
  0
LINE
  8
ITEM_50
 10
503.5878951267335
 20
201.2017647016652
 30
0.0
 11
504.3548951267335
 21
201.9687647016652
 31
0.0
  0
LINE
  8
ITEM_25
 10
503.5878951267335
 20
194.7357647016652
 30
0.0
 11
507.8378951267336
 21
194.7357647016652
 31
0.0
  0
LINE
  8
ITEM_25
 10
507.8378951267336
 20
201.2017647016652
 30
0.0
 11
501.5976195064142
 21
200.9687647016652
 31
0.0
  0
LINE
  8
ITEM_50
 10
513.9378951267335
 20
200.9641271261959
 30
0.0
 11
513.9378951267335
 21
194.9734022771347
 31
0.0
  0
LINE
  8
ITEM_50
 10
504.3548951267335
 20
201.9687647016652
 30
0.0
 11
504.3548951267335
 21
193.9687647016652
 31
0.0
  0
LINE
  8
ITEM_50
 10
514.1378951267336
 20
204.9687647016652
 30
0.0
 11
514.1378951267336
 21
211.9687647016652
 31
0.0
  0
LINE
  8
ITEM_50
 10
514.1378951267336
 20
211.9687647016652
 30
0.0
 11
513.0378951267335
 21
213.9687647016652
 31
0.0
  0
LINE
  8
ITEM_50
 10
507.8378951267335
 20
213.9687647016652
 30
0.0
 11
513.0378951267335
 21
213.9687647016652
 31
0.0
  0
LINE
  8
ITEM_50
 10
478.8378951267335
 20
184.9687647016652
 30
0.0
 11
474.6380811267335
 21
184.9687647016652
 31
0.0
  0
LINE
  8
ITEM_50
 10
474.6380811267335
 20
178.9687647016652
 30
0.0
 11
478.8378951267335
 21
178.9687647016652
 31
0.0
  0
POLYLINE
  8
ITEM_25
 66
     1
 10
0.0
 20
0.0
 30
0.0
  0
VERTEX
  8
ITEM_25
 10
474.6380811267335
 20
179.6687647016652
 30
0.0
 50
180.0
  0
VERTEX
  8
ITEM_25
 10
478.8378951267335
 20
179.6687647016652
 30
0.0
 50
180.0
  0
SEQEND
  8
ITEM_25
  0
POLYLINE
  8
ITEM_25
 66
     1
 10
0.0
 20
0.0
 30
0.0
  0
VERTEX
  8
ITEM_25
 10
474.6380811267335
 20
184.2687647016652
 30
0.0
 50
180.0
  0
VERTEX
  8
ITEM_25
 10
478.8378951267335
 20
184.2687647016652
 30
0.0
 50
180.0
  0
SEQEND
  8
ITEM_25
  0
LINE
  8
ITEM_50
 10
467.5767301267335
 20
234.1263437016652
 30
0.0
 11
467.5767301267335
 21
237.8250647676123
 31
0.0
  0
POLYLINE
  8
ITEM_50
 66
     1
 10
0.0
 20
0.0
 30
0.0
  0
VERTEX
  8
ITEM_50
 10
467.5767301267335
 20
237.8250647016652
 30
0.0
 42
0.019578
 70
     2
 50
105.4152489999999
  0
VERTEX
  8
ITEM_50
 10
467.5043786267335
 20
237.9435597016652
 30
0.0
 42
0.250947
 50
180.0
  0
VERTEX
  8
ITEM_50
 10
467.3380811267335
 20
238.0326332016652
 30
0.0
 42
0.250947
 50
180.0
  0
SEQEND
  8
ITEM_50
  0
LINE
  8
ITEM_50
 10
478.8378951267335
 20
248.9687647016652
 30
0.0
 11
474.6380811267335
 21
248.9687647016652
 31
0.0
  0
LINE
  8
ITEM_50
 10
474.6380811267335
 20
242.9687647016652
 30
0.0
 11
478.8378951267335
 21
242.9687647016652
 31
0.0
  0
LINE
  8
ITEM_25
 10
474.6380811267335
 20
243.6687647016652
 30
0.0
 11
478.8378951267335
 21
243.6687647016652
 31
0.0
  0
POLYLINE
  8
ITEM_25
 66
     1
 10
0.0
 20
0.0
 30
0.0
  0
VERTEX
  8
ITEM_25
 10
474.6380811267335
 20
248.2687647016652
 30
0.0
 50
180.0
  0
VERTEX
  8
ITEM_25
 10
478.8378951267335
 20
248.2687647016652
 30
0.0
 50
180.0
  0
SEQEND
  8
ITEM_25
  0
POLYLINE
  8
ITEM_50
 66
     1
 10
0.0
 20
0.0
 30
0.0
  0
VERTEX
  8
ITEM_50
 10
467.5767301267335
 20
193.8111857016652
 30
0.0
 42
0.019578
 70
     2
 50
105.4152489999999
  0
VERTEX
  8
ITEM_50
 10
467.5043786267335
 20
193.9296807016652
 30
0.0
 42
0.250947
 50
180.0
  0
VERTEX
  8
ITEM_50
 10
467.3380811267335
 20
194.0187542016652
 30
0.0
 42
0.250947
 50
180.0
  0
SEQEND
  8
ITEM_50
  0
LINE
  8
ITEM_50
 10
467.5767301267335
 20
190.1124647016652
 30
0.0
 11
467.5767301267335
 21
193.8111857676123
 31
0.0
  0
POLYLINE
  8
ITEM_50
 66
     1
 10
0.0
 20
0.0
 30
0.0
  0
VERTEX
  8
ITEM_50
 10
467.5767301267335
 20
190.1124647016652
 30
0.0
 42
-0.019578
 70
     2
 50
105.4152489999999
  0
VERTEX
  8
ITEM_50
 10
467.5043786267335
 20
189.9939697016652
 30
0.0
 42
-0.250947
 50
90.0
  0
VERTEX
  8
ITEM_50
 10
467.3380811267335
 20
189.9048962016652
 30
0.0
 42
-0.250947
 50
90.0
  0
SEQEND
  8
ITEM_50
  0
LINE
  8
ITEM_50
 10
467.3380811267335
 20
189.9048962016618
 30
0.0
 11
467.3380811267335
 21
188.5154922016652
 31
0.0
  0
LINE
  8
ITEM_50
 10
507.9120711267335
 20
221.9687647016652
 30
0.0
 11
499.8378951267335
 21
221.9687647016652
 31
0.0
  0
LINE
  8
ITEM_25
 10
514.1542791900857
 20
201.2017647016652
 30
0.0
 11
514.7048951267336
 21
201.2017647016652
 31
0.0
  0
LINE
  8
ITEM_25
 10
514.1542791900857
 20
194.7357647016652
 30
0.0
 11
514.7048951267336
 21
194.7357647016652
 31
0.0
  0
LINE
  8
ITEM_25
 10
503.5878951267335
 20
180.7357647016652
 30
0.0
 11
507.8378951267336
 21
180.7357647016652
 31
0.0
  0
LINE
  8
ITEM_25
 10
503.5878951267335
 20
187.2017647016652
 30
0.0
 11
507.8378951267336
 21
187.2017647016652
 31
0.0
  0
LINE
  8
ITEM_50
 10
568.9049378653975
 20
221.9687647016652
 30
0.0
 11
573.9049378653975
 21
221.9687647016652
 31
0.0
  0
ARC
  8
ITEM_50
 10
489.3378951267335
 20
213.9687647016652
 30
0.0
 40
23.0
 50
0.0
 51
12.153197
  0
LINE
  8
ITEM_50
 10
568.9049378653976
 20
75.62529059314834
 30
0.0
 11
573.9049378653976
 21
75.62529059314834
 31
0.0
  0
LINE
  8
ITEM_50
 10
596.4049378653978
 20
74.58024759314832
 30
0.0
 11
595.4049378653978
 21
75.58024759314832
 31
0.0
  0
LINE
  8
ITEM_50
 10
595.4049378653978
 20
59.58024759314832
 30
0.0
 11
596.4049378653978
 21
60.58024759314832
 31
0.0
  0
LINE
  8
ITEM_50
 10
595.4049378653978
 20
59.58024759314832
 30
0.0
 11
595.4049378653978
 21
75.58024759314832
 31
0.0
  0
LINE
  8
ITEM_50
 10
594.9049378653978
 20
75.58024759314832
 30
0.0
 11
595.4049378653978
 21
75.58024759314832
 31
0.0
  0
LINE
  8
ITEM_50
 10
594.9049378653978
 20
59.58024759314832
 30
0.0
 11
595.4049378653978
 21
59.58024759314832
 31
0.0
  0
LINE
  8
ITEM_50
 10
596.4049378653978
 20
60.58024759314832
 30
0.0
 11
596.4049378653978
 21
74.58024759314832
 31
0.0
  0
LINE
  8
ITEM_50
 10
572.0781428653976
 20
55.48024759314833
 30
0.0
 11
571.9049378653976
 21
55.58024759314832
 31
0.0
  0
LINE
  8
ITEM_50
 10
570.9049378653976
 20
58.58024759314832
 30
0.0
 11
571.9049378653976
 21
58.58024759314832
 31
0.0
  0
ARC
  8
ITEM_50
 10
573.5030143653978
 20
57.08024759314832
 30
0.0
 40
3.0
 50
150.0
 51
209.9999999999999
  0
LINE
  8
ITEM_50
 10
572.0781428653976
 20
58.68024759314832
 30
0.0
 11
571.9049378653976
 21
58.58024759314832
 31
0.0
  0
LINE
  8
ITEM_50
 10
570.9049378653976
 20
55.58024759314832
 30
0.0
 11
571.9049378653976
 21
55.58024759314832
 31
0.0
  0
LINE
  8
ITEM_50
 10
572.0781428653976
 20
58.68024759314832
 30
0.0
 11
573.9049378653976
 21
58.68024759314832
 31
0.0
  0
LINE
  8
ITEM_50
 10
572.0781428653976
 20
55.48024759314833
 30
0.0
 11
573.9049378653976
 21
55.48024759314833
 31
0.0
  0
LINE
  8
ITEM_50
 10
570.9049378653976
 20
55.58024759314832
 30
0.0
 11
570.9049378653976
 21
58.58024759314832
 31
0.0
  0
LINE
  8
ITEM_50
 10
564.4049378653976
 20
75.83024759314832
 30
0.0
 11
565.0765728653977
 21
76.71071309314834
 31
0.0
  0
LINE
  8
ITEM_50
 10
565.0765728653977
 20
58.44978209314831
 30
0.0
 11
564.4049378653976
 21
59.33024759314832
 31
0.0
  0
ARC
  8
ITEM_50
 10
565.6042813653978
 20
74.70524759314832
 30
0.0
 40
3.3066065
 50
314.089067
 51
45.91093299999999
  0
ARC
  8
ITEM_50
 10
567.7055943653977
 20
74.70524759314832
 30
0.0
 40
3.3066065
 50
134.0890669999999
 51
225.910933
  0
ARC
  8
ITEM_50
 10
565.6042813653978
 20
60.45524759314832
 30
0.0
 40
3.3066065
 50
314.089067
 51
45.91093299999999
  0
ARC
  8
ITEM_50
 10
567.7055943653977
 20
60.45524759314832
 30
0.0
 40
3.3066065
 50
134.0890669999999
 51
225.910933
  0
ARC
  8
ITEM_50
 10
557.1236878653976
 20
67.58024759314832
 30
0.0
 40
11.78125
 50
336.2226840000021
 51
23.77731599999781
  0
ARC
  8
ITEM_50
 10
576.1861878653976
 20
67.58024759314832
 30
0.0
 40
11.78125
 50
156.2226840000021
 51
203.7773159999977
  0
ARC
  8
ITEM_50
 10
562.9049378653976
 20
74.33024759314832
 30
0.0
 40
1.5
 50
90.0
 51
180.0
  0
ARC
  8
ITEM_50
 10
562.9049378653976
 20
60.83024759314832
 30
0.0
 40
1.5
 50
180.0
 51
270.0
  0
LINE
  8
ITEM_50
 10
564.4049378653976
 20
75.83024759314832
 30
0.0
 11
562.9049378653976
 21
75.83024759314832
 31
0.0
  0
LINE
  8
ITEM_50
 10
561.4049378653976
 20
60.83024759314832
 30
0.0
 11
561.4049378653976
 21
74.33024759314832
 31
0.0
  0
LINE
  8
ITEM_50
 10
564.4049378653976
 20
59.33024759314832
 30
0.0
 11
562.9049378653976
 21
59.33024759314832
 31
0.0
  0
LINE
  8
ITEM_50
 10
565.4049378653976
 20
72.33024759314832
 30
0.0
 11
567.9049378653976
 21
72.33024759314832
 31
0.0
  0
LINE
  8
ITEM_50
 10
565.4049378653976
 20
62.83024759314832
 30
0.0
 11
567.9049378653976
 21
62.83024759314832
 31
0.0
  0
LINE
  8
ITEM_50
 10
567.9049378653976
 20
58.08024759314832
 30
0.0
 11
565.4049378653976
 21
58.08024759314832
 31
0.0
  0
LINE
  8
ITEM_50
 10
565.4049378653976
 20
77.08024759314832
 30
0.0
 11
567.9049378653976
 21
77.08024759314832
 31
0.0
  0
LINE
  8
ITEM_50
 10
564.4049378653976
 20
59.33024759314832
 30
0.0
 11
564.4049378653976
 21
75.83024759314832
 31
0.0
  0
LINE
  8
ITEM_50
 10
571.4049378653976
 20
75.62529059314834
 30
0.0
 11
571.4049378653976
 21
58.58024759314832
 31
0.0
  0
LINE
  8
ITEM_25
 10
573.9049378653976
 20
58.88015059314832
 30
0.0
 11
568.9049378653976
 21
58.88015059314832
 31
0.0
  0
LINE
  8
ITEM_STPG
 10
570.9049378653976
 20
111.0591069255856
 30
0.0
 11
570.9049378653976
 21
128.1992547472736
 31
0.0
  0
LINE
  8
ITEM_50
 10
568.9049378653976
 20
75.62529059314834
 30
0.0
 11
568.9049378653976
 21
57.70015059314835
 31
0.0
  0
LINE
  8
ITEM_50
 10
573.9049378653976
 20
69.18024759314832
 30
0.0
 11
568.9049378653976
 21
69.18024759314832
 31
0.0
  0
LINE
  8
ITEM_50
 10
570.5677593653977
 20
57.70015059314835
 30
0.0
 11
568.9049378653976
 21
57.70015059314835
 31
0.0
  0
LINE
  8
ITEM_STPG
 10
576.9049378653976
 20
18.58024759314832
 30
0.0
 11
564.9049378653976
 21
18.58024759314832
 31
0.0
  0
LINE
  8
ITEM_STPG
 10
576.9049378653976
 20
13.58024759314832
 30
0.0
 11
564.9049378653976
 21
13.58024759314832
 31
0.0
  0
CIRCLE
  8
ITEM_50
 10
570.9049378653976
 20
13.58024759314832
 30
0.0
 40
2.0
  0
CIRCLE
  8
ITEM_50
 10
570.9049378653976
 20
18.58024759314832
 30
0.0
 40
2.0
  0
CIRCLE
  8
ITEM_50
 10
570.9049378653976
 20
116.5802475931483
 30
0.0
 40
2.0
  0
CIRCLE
  8
ITEM_50
 10
570.9049378653976
 20
121.5802475931483
 30
0.0
 40
2.0
  0
LINE
  8
ITEM_STPG
 10
576.9049378653976
 20
116.5802475931483
 30
0.0
 11
564.9049378653976
 21
116.5802475931483
 31
0.0
  0
LINE
  8
ITEM_STPG
 10
576.9049378653976
 20
121.5802475931483
 30
0.0
 11
564.9049378653976
 21
121.5802475931483
 31
0.0
  0
ARC
  8
ITEM_50
 10
586.9049378653976
 20
80.58024759314832
 30
0.0
 40
5.5
 50
35.380023
 51
84.61997700000002
  0
ARC
  8
ITEM_50
 10
586.9049378653976
 20
80.58024759314832
 30
0.0
 40
5.5
 50
335.3800230000046
 51
24.61997699999544
  0
ARC
  8
ITEM_50
 10
586.9049378653976
 20
80.58024759314832
 30
0.0
 40
5.5
 50
275.3800229999999
 51
324.619977
  0
ARC
  8
ITEM_50
 10
586.9049378653976
 20
80.58024759314832
 30
0.0
 40
5.5
 50
215.3800229999999
 51
264.619977
  0
ARC
  8
ITEM_50
 10
586.9049378653976
 20
80.58024759314832
 30
0.0
 40
5.5
 50
155.3800230000046
 51
204.6199769999954
  0
ARC
  8
ITEM_50
 10
586.9049378653976
 20
54.58024759314832
 30
0.0
 40
5.5
 50
35.380023
 51
84.61997700000002
  0
ARC
  8
ITEM_50
 10
586.9049378653976
 20
54.58024759314832
 30
0.0
 40
5.5
 50
335.3800230000046
 51
24.61997699999544
  0
ARC
  8
ITEM_50
 10
586.9049378653976
 20
54.58024759314832
 30
0.0
 40
5.5
 50
275.3800229999999
 51
324.619977
  0
ARC
  8
ITEM_50
 10
586.9049378653976
 20
54.58024759314832
 30
0.0
 40
5.5
 50
215.3800229999999
 51
264.619977
  0
ARC
  8
ITEM_50
 10
586.9049378653976
 20
54.58024759314832
 30
0.0
 40
5.5
 50
155.3800230000046
 51
204.6199769999954
  0
CIRCLE
  8
ITEM_50
 10
586.9049378653976
 20
80.58024759314832
 30
0.0
 40
3.0
  0
ARC
  8
ITEM_25
 10
586.9049378653976
 20
80.58024759314832
 30
0.0
 40
2.299999999999999
 50
261.0
 51
189.0
  0
CIRCLE
  8
ITEM_50
 10
586.9049378653976
 20
54.58024759314832
 30
0.0
 40
3.0
  0
ARC
  8
ITEM_25
 10
586.9049378653976
 20
54.58024759314832
 30
0.0
 40
2.299999999999999
 50
261.0
 51
189.0
  0
POLYLINE
  8
ITEM_50
 66
     1
 10
0.0
 20
0.0
 30
0.0
 70
     1
  0
VERTEX
  8
ITEM_50
 10
581.9049378653976
 20
77.69349609314832
 30
0.0
  0
VERTEX
  8
ITEM_50
 10
586.9049378653976
 20
74.80674459314832
 30
0.0
  0
VERTEX
  8
ITEM_50
 10
591.9049378653976
 20
77.69349609314832
 30
0.0
  0
VERTEX
  8
ITEM_50
 10
591.9049378653976
 20
83.46699859314833
 30
0.0
  0
VERTEX
  8
ITEM_50
 10
586.9049378653976
 20
86.35375009314833
 30
0.0
  0
VERTEX
  8
ITEM_50
 10
581.9049378653976
 20
83.46699859314833
 30
0.0
  0
SEQEND
  8
ITEM_50
  0
CIRCLE
  8
ITEM_50
 10
586.9049378653976
 20
80.58024759314832
 30
0.0
 40
5.0
  0
POLYLINE
  8
ITEM_50
 66
     1
 10
0.0
 20
0.0
 30
0.0
 70
     1
  0
VERTEX
  8
ITEM_50
 10
581.9049378653976
 20
51.69349609314832
 30
0.0
  0
VERTEX
  8
ITEM_50
 10
586.9049378653976
 20
48.80674459314832
 30
0.0
  0
VERTEX
  8
ITEM_50
 10
591.9049378653976
 20
51.69349609314832
 30
0.0
  0
VERTEX
  8
ITEM_50
 10
591.9049378653976
 20
57.46699859314833
 30
0.0
  0
VERTEX
  8
ITEM_50
 10
586.9049378653976
 20
60.35375009314833
 30
0.0
  0
VERTEX
  8
ITEM_50
 10
581.9049378653976
 20
57.46699859314833
 30
0.0
  0
SEQEND
  8
ITEM_50
  0
CIRCLE
  8
ITEM_50
 10
586.9049378653976
 20
54.58024759314832
 30
0.0
 40
5.0
  0
ARC
  8
ITEM_50
 10
586.9049378653976
 20
80.58024759314832
 30
0.0
 40
5.5
 50
95.38002299999998
 51
144.6199769999999
  0
ARC
  8
ITEM_50
 10
586.9049378653976
 20
54.58024759314832
 30
0.0
 40
5.5
 50
95.38002299999998
 51
144.6199769999999
  0
ARC
  8
ITEM_50
 10
592.9049378653976
 20
9.580247593148328
 30
0.0
 40
2.0
 50
270.0
 51
0.0
  0
ARC
  8
ITEM_50
 10
592.9049378653976
 20
125.5802475931483
 30
0.0
 40
2.0
 50
0.0
 51
90.0
  0
ARC
  8
ITEM_50
 10
592.9049378653976
 20
125.5802475931483
 30
0.0
 40
2.0
 50
0.0
 51
90.0
  0
LINE
  8
ITEM_50
 10
568.9049378653976
 20
125.5802475931483
 30
0.0
 11
572.9049378653976
 21
125.5802475931483
 31
0.0
  0
LINE
  8
ITEM_50
 10
568.9049378653976
 20
112.5802475931483
 30
0.0
 11
572.9049378653976
 21
112.5802475931483
 31
0.0
  0
LINE
  8
ITEM_50
 10
558.4049378653976
 20
92.58024759314832
 30
0.0
 11
572.9049378653976
 21
92.58024759314832
 31
0.0
  0
LINE
  8
ITEM_50
 10
558.4049378653976
 20
42.58024759314832
 30
0.0
 11
572.9049378653976
 21
42.58024759314832
 31
0.0
  0
LINE
  8
ITEM_50
 10
568.9049378653976
 20
22.58024759314832
 30
0.0
 11
572.9049378653976
 21
22.58024759314832
 31
0.0
  0
LINE
  8
ITEM_50
 10
568.9049378653976
 20
9.580247593148328
 30
0.0
 11
572.9049378653976
 21
9.580247593148328
 31
0.0
  0
LINE
  8
ITEM_STPG
 10
558.6810183653976
 20
67.58024759314832
 30
0.0
 11
597.8199628936131
 21
67.58024759314832
 31
0.0
  0
LINE
  8
ITEM_STPG
 10
570.9049378653976
 20
7.094786483200778
 30
0.0
 11
570.9049378653976
 21
24.07357859294759
 31
0.0
  0
LINE
  8
ITEM_50
 10
566.9049378653976
 20
11.58024759314832
 30
0.0
 11
566.9049378653976
 21
20.58024759314832
 31
0.0
  0
LINE
  8
ITEM_50
 10
574.9049378653976
 20
20.58024759314832
 30
0.0
 11
574.9049378653976
 21
11.58024759314832
 31
0.0
  0
LINE
  8
ITEM_50
 10
566.9049378653976
 20
114.5802475931483
 30
0.0
 11
566.9049378653976
 21
123.5802475931483
 31
0.0
  0
LINE
  8
ITEM_50
 10
574.9049378653976
 20
114.5802475931483
 30
0.0
 11
574.9049378653976
 21
123.5802475931483
 31
0.0
  0
ARC
  8
ITEM_50
 10
568.9049378653976
 20
11.58024759314832
 30
0.0
 40
2.0
 50
180.0
 51
270.0
  0
ARC
  8
ITEM_50
 10
568.9049378653976
 20
20.58024759314832
 30
0.0
 40
2.0
 50
90.0
 51
180.0
  0
ARC
  8
ITEM_50
 10
572.9049378653976
 20
11.58024759314832
 30
0.0
 40
2.0
 50
270.0
 51
0.0
  0
ARC
  8
ITEM_50
 10
572.9049378653976
 20
20.58024759314832
 30
0.0
 40
2.0
 50
0.0
 51
90.0
  0
ARC
  8
ITEM_50
 10
568.9049378653976
 20
114.5802475931483
 30
0.0
 40
2.0
 50
180.0
 51
270.0
  0
ARC
  8
ITEM_50
 10
568.9049378653976
 20
123.5802475931483
 30
0.0
 40
2.0
 50
90.0
 51
180.0
  0
ARC
  8
ITEM_50
 10
572.9049378653976
 20
114.5802475931483
 30
0.0
 40
2.0
 50
270.0
 51
0.0
  0
ARC
  8
ITEM_50
 10
572.9049378653976
 20
123.5802475931483
 30
0.0
 40
2.0
 50
0.0
 51
90.0
  0
LINE
  8
ITEM_50
 10
557.4049378653976
 20
43.58024759314832
 30
0.0
 11
557.4049378653976
 21
91.58024759314832
 31
0.0
  0
LINE
  8
ITEM_50
 10
573.9049378653976
 20
43.58024759314832
 30
0.0
 11
573.9049378653976
 21
91.58024759314832
 31
0.0
  0
ARC
  8
ITEM_50
 10
558.4049378653976
 20
43.58024759314832
 30
0.0
 40
1.0
 50
180.0
 51
270.0
  0
ARC
  8
ITEM_50
 10
558.4049378653976
 20
91.58024759314832
 30
0.0
 40
1.0
 50
90.0
 51
180.0
  0
ARC
  8
ITEM_50
 10
572.9049378653976
 20
91.58024759314832
 30
0.0
 40
1.0
 50
0.0
 51
90.0
  0
ARC
  8
ITEM_50
 10
572.9049378653976
 20
43.58024759314832
 30
0.0
 40
1.0
 50
270.0
 51
0.0
  0
ARC
  8
ITEM_50
 10
570.9049378653976
 20
35.58024759314832
 30
0.0
 40
5.5
 50
270.0
 51
90.0
  0
ARC
  8
ITEM_50
 10
570.9049378653976
 20
99.58024759314832
 30
0.0
 40
5.5
 50
270.0
 51
90.0
  0
ARC
  8
ITEM_50
 10
562.9049378653976
 20
99.58024759314832
 30
0.0
 40
5.5
 50
90.0
 51
270.0
  0
ARC
  8
ITEM_50
 10
562.9049378653976
 20
35.58024759314832
 30
0.0
 40
5.5
 50
90.0
 51
270.0
  0
LINE
  8
ITEM_50
 10
562.9049378653976
 20
30.08024759314832
 30
0.0
 11
570.9049378653976
 21
30.08024759314832
 31
0.0
  0
LINE
  8
ITEM_50
 10
562.9049378653976
 20
41.08024759314832
 30
0.0
 11
570.9049378653976
 21
41.08024759314832
 31
0.0
  0
LINE
  8
ITEM_50
 10
562.9049378653976
 20
94.08024759314832
 30
0.0
 11
570.9049378653976
 21
94.08024759314832
 31
0.0
  0
LINE
  8
ITEM_50
 10
562.9049378653976
 20
105.0802475931483
 30
0.0
 11
570.9049378653976
 21
105.0802475931483
 31
0.0
  0
CIRCLE
  8
ITEM_50
 10
562.9049378653976
 20
35.58024759314832
 30
0.0
 40
3.149999999999999
  0
CIRCLE
  8
ITEM_50
 10
570.9049378653976
 20
35.58024759314832
 30
0.0
 40
3.149999999999999
  0
CIRCLE
  8
ITEM_50
 10
562.9049378653976
 20
99.58024759314832
 30
0.0
 40
3.149999999999999
  0
CIRCLE
  8
ITEM_50
 10
570.9049378653976
 20
99.58024759314832
 30
0.0
 40
3.149999999999999
  0
LINE
  8
ITEM_STPG
 10
578.9049378653976
 20
54.58024759314832
 30
0.0
 11
594.9049378653978
 21
54.58024759314832
 31
0.0
  0
LINE
  8
ITEM_STPG
 10
578.9049378653976
 20
80.58024759314832
 30
0.0
 11
594.9049378653978
 21
80.58024759314832
 31
0.0
  0
LINE
  8
ITEM_STPG
 10
586.9049378653976
 20
62.73024759314833
 30
0.0
 11
586.9049378653976
 21
45.46556359314831
 31
0.0
  0
LINE
  8
ITEM_STPG
 10
586.9049378653976
 20
72.43024759314832
 30
0.0
 11
586.9049378653976
 21
89.68085709314834
 31
0.0
  0
LINE
  8
ITEM_STPG
 10
550.9049378653977
 20
35.58024759314832
 30
0.0
 11
597.4077114444326
 21
35.58024759314832
 31
0.0
  0
LINE
  8
ITEM_STPG
 10
550.9049378653977
 20
99.58024759314832
 30
0.0
 11
599.9049378653978
 21
99.58024759314832
 31
0.0
  0
LINE
  8
ITEM_STPG
 10
562.9049378653976
 20
23.58024759314832
 30
0.0
 11
562.9049378653976
 21
44.58024759314832
 31
0.0
  0
LINE
  8
ITEM_STPG
 10
562.9049378653976
 20
111.5802475931483
 30
0.0
 11
562.9049378653976
 21
89.08024759314832
 31
0.0
  0
LINE
  8
ITEM_STPG
 10
568.9049378653976
 20
57.08024759314832
 30
0.0
 11
586.9049378653976
 21
57.08024759314832
 31
0.0
  0
LINE
  8
ITEM_50
 10
594.9049378653978
 20
9.580247593148328
 30
0.0
 11
594.9049378653978
 21
125.5802475931483
 31
0.0
  0
ARC
  8
ITEM_50
 10
592.9049378653976
 20
125.5802475931483
 30
0.0
 40
2.0
 50
0.0
 51
90.0
  0
LINE
  8
ITEM_50
 10
592.9049378653978
 20
127.5802475931483
 30
0.0
 11
552.9049378653977
 21
127.5802475931483
 31
0.0
  0
ARC
  8
ITEM_50
 10
552.9049378653977
 20
125.5802475931483
 30
0.0
 40
2.0
 50
90.0
 51
180.0
  0
ARC
  8
ITEM_50
 10
552.9049378653977
 20
9.580247593148328
 30
0.0
 40
2.0
 50
180.0
 51
270.0
  0
LINE
  8
ITEM_50
 10
552.9049378653977
 20
7.580247593148328
 30
0.0
 11
592.9049378653978
 21
7.580247593148328
 31
0.0
  0
LINE
  8
ITEM_50
 10
550.9049378653977
 20
125.5802475931483
 30
0.0
 11
550.9049378653977
 21
9.580247593148328
 31
0.0
  0
ARC
  8
ITEM_50
 10
489.3378951267336
 20
67.58024759314839
 30
0.0
 40
23.0
 50
167.8468029999999
 51
180.0
  0
LINE
  8
ITEM_25
 10
475.0878951267336
 20
40.8132475931484
 30
0.0
 11
470.8378951267336
 21
40.8132475931484
 31
0.0
  0
LINE
  8
ITEM_25
 10
475.0878951267336
 20
34.34724759314839
 30
0.0
 11
470.8378951267336
 21
34.34724759314839
 31
0.0
  0
LINE
  8
ITEM_25
 10
464.5215110633815
 20
48.34724759314839
 30
0.0
 11
463.9708951267336
 21
48.34724759314839
 31
0.0
  0
LINE
  8
ITEM_25
 10
464.5215110633815
 20
54.81324759314837
 30
0.0
 11
463.9708951267336
 21
54.81324759314837
 31
0.0
  0
LINE
  8
ITEM_50
 10
470.7637191267338
 20
75.58024759314839
 30
0.0
 11
478.8378951267337
 21
75.58024759314839
 31
0.0
  0
LINE
  8
ITEM_50
 10
511.3377091267336
 20
43.51637909314497
 30
0.0
 11
511.3377091267336
 21
42.12697509314837
 31
0.0
  0
POLYLINE
  8
ITEM_50
 66
     1
 10
0.0
 20
0.0
 30
0.0
  0
VERTEX
  8
ITEM_50
 10
511.0990601267337
 20
43.72394759314839
 30
0.0
 42
0.019578
 70
     2
 50
105.4152489999999
  0
VERTEX
  8
ITEM_50
 10
511.1714116267337
 20
43.60545259314837
 30
0.0
 42
0.250947
  0
VERTEX
  8
ITEM_50
 10
511.3377091267336
 20
43.51637909314838
 30
0.0
 42
0.250947
  0
SEQEND
  8
ITEM_50
  0
LINE
  8
ITEM_50
 10
511.0990601267337
 20
43.72394759314839
 30
0.0
 11
511.0990601267337
 21
47.42266865909546
 31
0.0
  0
POLYLINE
  8
ITEM_50
 66
     1
 10
0.0
 20
0.0
 30
0.0
  0
VERTEX
  8
ITEM_50
 10
511.0990601267337
 20
47.42266859314837
 30
0.0
 42
-0.019578
 70
     2
 50
105.4152489999999
  0
VERTEX
  8
ITEM_50
 10
511.1714116267337
 20
47.54116359314839
 30
0.0
 42
-0.250947
  0
VERTEX
  8
ITEM_50
 10
511.3377091267336
 20
47.63023709314838
 30
0.0
 42
-0.250947
  0
SEQEND
  8
ITEM_50
  0
POLYLINE
  8
ITEM_25
 66
     1
 10
0.0
 20
0.0
 30
0.0
  0
VERTEX
  8
ITEM_25
 10
504.0377091267337
 20
101.8802475931483
 30
0.0
  0
VERTEX
  8
ITEM_25
 10
499.8378951267336
 20
101.8802475931483
 30
0.0
  0
SEQEND
  8
ITEM_25
  0
LINE
  8
ITEM_25
 10
504.0377091267337
 20
97.28024759314838
 30
0.0
 11
499.8378951267336
 21
97.28024759314838
 31
0.0
  0
LINE
  8
ITEM_50
 10
504.0377091267337
 20
96.58024759314837
 30
0.0
 11
499.8378951267336
 21
96.58024759314837
 31
0.0
  0
LINE
  8
ITEM_50
 10
499.8378951267336
 20
102.5802475931483
 30
0.0
 11
504.0377091267337
 21
102.5802475931483
 31
0.0
  0
POLYLINE
  8
ITEM_50
 66
     1
 10
0.0
 20
0.0
 30
0.0
  0
VERTEX
  8
ITEM_50
 10
511.0990601267337
 20
91.43654759314837
 30
0.0
 42
-0.019578
 70
     2
 50
105.4152489999999
  0
VERTEX
  8
ITEM_50
 10
511.1714116267337
 20
91.55504259314837
 30
0.0
 42
-0.250947
  0
VERTEX
  8
ITEM_50
 10
511.3377091267336
 20
91.64411609314838
 30
0.0
 42
-0.250947
  0
SEQEND
  8
ITEM_50
  0
LINE
  8
ITEM_50
 10
511.0990601267337
 20
87.73782659314839
 30
0.0
 11
511.0990601267337
 21
91.43654765909543
 31
0.0
  0
POLYLINE
  8
ITEM_25
 66
     1
 10
0.0
 20
0.0
 30
0.0
  0
VERTEX
  8
ITEM_25
 10
504.0377091267337
 20
37.88024759314835
 30
0.0
  0
VERTEX
  8
ITEM_25
 10
499.8378951267336
 20
37.88024759314835
 30
0.0
  0
SEQEND
  8
ITEM_25
  0
POLYLINE
  8
ITEM_25
 66
     1
 10
0.0
 20
0.0
 30
0.0
  0
VERTEX
  8
ITEM_25
 10
504.0377091267337
 20
33.28024759314838
 30
0.0
  0
VERTEX
  8
ITEM_25
 10
499.8378951267336
 20
33.28024759314838
 30
0.0
  0
SEQEND
  8
ITEM_25
  0
LINE
  8
ITEM_50
 10
504.0377091267337
 20
32.58024759314839
 30
0.0
 11
499.8378951267336
 21
32.58024759314839
 31
0.0
  0
LINE
  8
ITEM_50
 10
499.8378951267336
 20
38.58024759314839
 30
0.0
 11
504.0377091267337
 21
38.58024759314839
 31
0.0
  0
LINE
  8
ITEM_50
 10
470.8378951267336
 20
67.58024759314839
 30
0.0
 11
465.6378951267337
 21
67.58024759314839
 31
0.0
  0
LINE
  8
ITEM_50
 10
464.5378951267337
 20
65.58024759314839
 30
0.0
 11
465.6378951267337
 21
67.58024759314839
 31
0.0
  0
LINE
  8
ITEM_50
 10
464.5378951267337
 20
58.58024759314839
 30
0.0
 11
464.5378951267337
 21
65.58024759314839
 31
0.0
  0
LINE
  8
ITEM_50
 10
474.3208951267337
 20
55.58024759314839
 30
0.0
 11
474.3208951267337
 21
47.58024759314839
 31
0.0
  0
LINE
  8
ITEM_50
 10
464.7378951267337
 20
54.57561001767903
 30
0.0
 11
464.7378951267337
 21
48.58488516861787
 31
0.0
  0
LINE
  8
ITEM_25
 10
470.8378951267336
 20
54.81324759314837
 30
0.0
 11
477.078170747053
 21
54.58024759314839
 31
0.0
  0
LINE
  8
ITEM_25
 10
475.0878951267336
 20
48.34724759314839
 30
0.0
 11
470.8378951267336
 21
48.34724759314839
 31
0.0
  0
LINE
  8
ITEM_50
 10
475.0878951267336
 20
54.81324759314837
 30
0.0
 11
474.3208951267337
 21
55.58024759314839
 31
0.0
  0
LINE
  8
ITEM_50
 10
474.3208951267337
 20
55.58024759314839
 30
0.0
 11
470.8378951267336
 21
55.58024759314839
 31
0.0
  0
LINE
  8
ITEM_50
 10
464.2379294431127
 20
55.08028190952735
 30
0.0
 11
463.0878951267336
 21
53.93024759314836
 31
0.0
  0
LINE
  8
ITEM_50
 10
463.0878951267336
 20
53.93024759314836
 30
0.0
 11
463.0878951267336
 21
49.23024759314837
 31
0.0
  0
LINE
  8
ITEM_50
 10
463.0878951267336
 20
49.23024759314837
 30
0.0
 11
464.2379294431138
 21
48.08021327676824
 31
0.0
  0
LINE
  8
ITEM_50
 10
470.8378951267336
 20
47.58024759314839
 30
0.0
 11
474.3208951267337
 21
47.58024759314839
 31
0.0
  0
LINE
  8
ITEM_50
 10
474.3208951267337
 20
47.58024759314839
 30
0.0
 11
475.0878951267336
 21
48.34724759314839
 31
0.0
  0
LINE
  8
ITEM_50
 10
475.0878951267336
 20
48.34724759314839
 30
0.0
 11
475.0878951267336
 21
54.81324759314837
 31
0.0
  0
ARC
  8
ITEM_50
 10
460.1902586267337
 20
44.58024759314839
 30
0.0
 40
3.925451499999999
 50
328.51785
 51
0.0
  0
ARC
  8
ITEM_50
 10
464.5380826267337
 20
44.58717659314838
 30
0.0
 40
2.0
 50
115.6179467872872
 51
244.5646742756376
  0
LINE
  8
ITEM_STPG
 10
461.353213709702
 20
44.58024759314839
 30
0.0
 11
472.2761548514913
 21
44.58024759314839
 31
0.0
  0
LINE
  8
ITEM_50
 10
466.3378951267336
 20
21.58024759314837
 30
0.0
 11
470.8378951267336
 21
21.58024759314837
 31
0.0
  0
ARC
  8
ITEM_50
 10
460.1016151267336
 20
30.41985909314838
 30
0.0
 40
4.439178499999999
 50
2.070561999999956
 51
39.27828799999994
  0
LINE
  8
ITEM_50
 10
463.5378951267337
 20
42.53024759314838
 30
0.0
 11
463.5378951267337
 21
41.58024759314839
 31
0.0
  0
ARC
  8
ITEM_50
 10
460.1902586267337
 20
44.58024759314839
 30
0.0
 40
3.925451499999999
 50
0.0
 51
31.48214999999997
  0
LINE
  8
ITEM_50
 10
470.8378951267336
 20
21.58024759314837
 30
0.0
 11
470.8378951267336
 21
67.58024759314839
 31
0.0
  0
ARC
  8
ITEM_50
 10
460.1016151267336
 20
58.74063609314838
 30
0.0
 40
4.439178499999999
 50
320.721712
 51
320.721712
  0
LINE
  8
ITEM_50
 10
463.5378951267337
 20
55.93024759314836
 30
0.0
 11
463.5378951267337
 21
55.58024759314839
 31
0.0
  0
LINE
  8
ITEM_50
 10
463.5378951267337
 20
47.58024759314839
 30
0.0
 11
463.5378951267337
 21
46.63024759314838
 31
0.0
  0
LINE
  8
ITEM_50
 10
463.5378951267337
 20
33.58024759314839
 30
0.0
 11
463.5378951267337
 21
33.23024759314837
 31
0.0
  0
LINE
  8
ITEM_50
 10
464.5378951267337
 20
30.58024759314839
 30
0.0
 11
464.5378951267337
 21
23.58024759314837
 31
0.0
  0
LINE
  8
ITEM_50
 10
464.5378951267337
 20
23.58024759314837
 30
0.0
 11
465.6378951267337
 21
21.58024759314837
 31
0.0
  0
LINE
  8
ITEM_50
 10
465.6378951267337
 20
21.58024759314837
 30
0.0
 11
466.3378951267336
 21
21.58024759314837
 31
0.0
  0
ARC
  8
ITEM_50
 10
460.1016151267336
 20
58.74063609314838
 30
0.0
 40
4.439178499999999
 50
320.721712
 51
357.929438
  0
LINE
  8
ITEM_STPG
 10
476.3605246267336
 20
51.58024759314839
 30
0.0
 11
461.8325911267337
 21
51.58024759314839
 31
0.0
  0
ARC
  8
ITEM_50
 10
461.2096431267336
 20
51.58024759314839
 30
0.0
 40
4.6282565
 50
0.0
 51
59.79790200000004
  0
ARC
  8
ITEM_50
 10
461.2096431267336
 20
51.58024759314839
 30
0.0
 40
4.6282565
 50
300.2020979999999
 51
0.0
  0
ARC
  8
ITEM_50
 10
461.2096431267336
 20
37.58024759314839
 30
0.0
 40
4.6282565
 50
0.0
 51
59.79790200000004
  0
ARC
  8
ITEM_50
 10
461.2096431267336
 20
37.58024759314839
 30
0.0
 40
4.6282565
 50
300.2020979999999
 51
0.0
  0
LINE
  8
ITEM_STPG
 10
476.3605246267336
 20
37.58024759314839
 30
0.0
 11
461.8325911267337
 21
37.58024759314839
 31
0.0
  0
LINE
  8
ITEM_50
 10
475.0878951267336
 20
40.81324759314837
 30
0.0
 11
475.0878951267336
 21
34.34724759314839
 31
0.0
  0
LINE
  8
ITEM_50
 10
474.3208951267337
 20
41.58024759314839
 30
0.0
 11
475.0878951267336
 21
40.81324759314837
 31
0.0
  0
LINE
  8
ITEM_50
 10
470.8378951267336
 20
41.58024759314839
 30
0.0
 11
474.3208951267337
 21
41.58024759314839
 31
0.0
  0
LINE
  8
ITEM_50
 10
463.0878951267336
 20
39.93024759314836
 30
0.0
 11
464.2379294431127
 21
41.08028190952735
 31
0.0
  0
LINE
  8
ITEM_50
 10
463.0878951267336
 20
35.23024759314837
 30
0.0
 11
463.0878951267336
 21
39.93024759314836
 31
0.0
  0
LINE
  8
ITEM_50
 10
464.2379294431127
 20
34.08021327676938
 30
0.0
 11
463.0878951267336
 21
35.23024759314837
 31
0.0
  0
LINE
  8
ITEM_50
 10
474.3208951267337
 20
33.58024759314839
 30
0.0
 11
470.8378951267336
 21
33.58024759314839
 31
0.0
  0
LINE
  8
ITEM_50
 10
475.0878951267336
 20
34.34724759314839
 30
0.0
 11
474.3208951267337
 21
33.58024759314839
 31
0.0
  0
LINE
  8
ITEM_25
 10
464.5215110633805
 20
40.81324759314837
 30
0.0
 11
463.9708951267336
 21
40.81324759314837
 31
0.0
  0
LINE
  8
ITEM_25
 10
464.5215110633805
 20
34.34724759314839
 30
0.0
 11
463.9708951267336
 21
34.34724759314839
 31
0.0
  0
LINE
  8
ITEM_50
 10
464.7378951267337
 20
34.58488516861832
 30
0.0
 11
464.7378951267337
 21
40.57561001767844
 31
0.0
  0
LINE
  8
ITEM_50
 10
474.3208951267337
 20
33.58024759314839
 30
0.0
 11
474.3208951267337
 21
41.58024759314839
 31
0.0
  0
LINE
  8
ITEM_STPG
 10
464.8190368662758
 20
67.58024759314839
 30
0.0
 11
502.0218430783415
 21
67.58024759314839
 31
0.0
  0
LINE
  8
ITEM_50
 10
489.3378951267336
 20
58.88024759314838
 30
0.0
 11
489.3378951267336
 21
58.68024759314836
 31
0.0
  0
LINE
  8
ITEM_STPG
 10
474.8746361267337
 20
54.58024759314839
 30
0.0
 11
501.2400580336282
 21
54.58024759314839
 31
0.0
  0
LINE
  8
ITEM_STPG
 10
476.9547975032537
 20
80.58024759314839
 30
0.0
 11
501.6987435587394
 21
80.58024759314839
 31
0.0
  0
LINE
  8
ITEM_STPG
 10
495.8378951267336
 20
57.08024759314839
 30
0.0
 11
484.3378951267336
 21
57.08024759314839
 31
0.0
  0
ARC
  8
ITEM_50
 10
471.8378951267336
 20
67.58024759314839
 30
0.0
 40
2.5
 50
0.0
 51
180.0
  0
ARC
  8
ITEM_GSTRG
 10
489.3378951267336
 20
67.58024759314839
 30
0.0
 40
10.0
 50
8.881522000000019
 51
53.13010200000005
  0
ARC
  8
ITEM_GSTRG
 10
489.3378951267336
 20
57.28024759314838
 30
0.0
 40
1.6
 50
90.0
 51
187.1807557814622
  0
ARC
  8
ITEM_GSTRG
 10
499.6378951267337
 20
67.58024759314839
 30
0.0
 40
1.6
 50
105.214852
 51
155.1023310000029
  0
ARC
  8
ITEM_50
 10
489.3378951267336
 20
67.58024759314839
 30
0.0
 40
15.0
 50
180.0
 51
224.4270039999999
  0
LINE
  8
ITEM_GSTRG
 10
495.3378951267336
 20
75.58024759314839
 30
0.0
 11
478.8378951267337
 21
75.58024759314839
 31
0.0
  0
LINE
  8
ITEM_50
 10
478.8378951267336
 20
69.18024759314836
 30
0.0
 11
478.8378951267336
 21
78.29239009314837
 31
0.0
  0
ARC
  8
ITEM_50
 10
470.7637191267338
 20
71.58024759314839
 30
0.0
 40
4.0
 50
90.0
 51
167.8468029999999
  0
LINE
  8
ITEM_50
 10
489.3378951267337
 20
127.5802475931483
 30
0.0
 11
489.3378951267336
 21
77.08024759314811
 31
0.0
  0
LINE
  8
ITEM_STPG
 10
489.3378951267336
 20
55.48024759314837
 30
0.0
 11
489.3378951267336
 21
82.58024759314839
 31
0.0
  0
POLYLINE
  8
ITEM_GSTRG
 66
     1
 10
0.0
 20
0.0
 30
0.0
 70
     1
  0
VERTEX
  8
ITEM_GSTRG
 10
497.3378951267336
 20
62.96144559314838
 30
0.0
  0
VERTEX
  8
ITEM_GSTRG
 10
489.3378951267336
 20
58.34264359314836
 30
0.0
  0
VERTEX
  8
ITEM_GSTRG
 10
481.3378951267336
 20
62.96144559314838
 30
0.0
  0
VERTEX
  8
ITEM_GSTRG
 10
481.3378951267336
 20
72.19904959314835
 30
0.0
  0
VERTEX
  8
ITEM_GSTRG
 10
489.3378951267336
 20
76.81785209314837
 30
0.0
  0
VERTEX
  8
ITEM_GSTRG
 10
497.3378951267336
 20
72.19904959314835
 30
0.0
  0
SEQEND
  8
ITEM_GSTRG
  0
LINE
  8
ITEM_50
 10
497.8378951267336
 20
127.5802475931483
 30
0.0
 11
489.3378951267336
 21
127.5802475931483
 31
0.0
  0
LINE
  8
ITEM_50
 10
489.3378951267336
 20
7.580247593148371
 30
0.0
 11
497.8378951267336
 21
7.580247593148371
 31
0.0
  0
ARC
  8
ITEM_50
 10
497.8378951267336
 20
9.580247593148371
 30
0.0
 40
2.0
 50
270.0
 51
0.0
  0
ARC
  8
ITEM_50
 10
497.8378951267336
 20
125.5802475931483
 30
0.0
 40
2.0
 50
0.0
 51
90.0
  0
LINE
  8
ITEM_STPG
 10
474.8778681267338
 20
35.58024759314839
 30
0.0
 11
513.5124901267337
 21
35.58024759314839
 31
0.0
  0
LINE
  8
ITEM_STPG
 10
513.3592096267336
 20
99.58024759314837
 30
0.0
 11
477.5527947038094
 21
99.58024759314837
 31
0.0
  0
LINE
  8
ITEM_50
 10
509.3378951267336
 20
9.580247593148371
 30
0.0
 11
499.8378951267345
 21
9.580247593148371
 31
0.0
  0
LINE
  8
ITEM_50
 10
509.3378951267336
 20
22.58024759314837
 30
0.0
 11
499.8378951267336
 21
22.58024759314837
 31
0.0
  0
LINE
  8
ITEM_50
 10
511.3378951267336
 20
20.58024759314837
 30
0.0
 11
511.3378951267336
 21
11.58024759314837
 31
0.0
  0
ARC
  8
ITEM_50
 10
509.3378951267336
 20
20.58024759314837
 30
0.0
 40
2.0
 50
0.0
 51
90.0
  0
ARC
  8
ITEM_50
 10
509.3378951267336
 20
11.58024759314837
 30
0.0
 40
2.0
 50
270.0
 51
0.0
  0
LINE
  8
ITEM_STPG
 10
512.799066127454
 20
18.58024759314837
 30
0.0
 11
478.0809920892934
 21
18.58024759314837
 31
0.0
  0
LINE
  8
ITEM_STPG
 10
512.7766266359828
 20
13.58024759314837
 30
0.0
 11
477.5604039757911
 21
13.58024759314837
 31
0.0
  0
ARC
  8
ITEM_50
 10
480.8378951267336
 20
9.580247593148371
 30
0.0
 40
2.0
 50
180.0
 51
270.0
  0
ARC
  8
ITEM_50
 10
480.8378951267336
 20
125.5802475931483
 30
0.0
 40
2.0
 50
90.0
 51
180.0
  0
LINE
  8
ITEM_50
 10
489.3378951267336
 20
127.5802475931483
 30
0.0
 11
480.8378951267336
 21
127.5802475931483
 31
0.0
  0
LINE
  8
ITEM_50
 10
480.8378951267336
 20
7.580247593148371
 30
0.0
 11
489.3378951267336
 21
7.580247593148371
 31
0.0
  0
LINE
  8
ITEM_50
 10
478.8378951267336
 20
9.580247593148371
 30
0.0
 11
478.8378951267336
 21
125.4662650931483
 31
0.0
  0
LINE
  8
ITEM_50
 10
499.8378951267336
 20
9.580247593148371
 30
0.0
 11
499.8378951267336
 21
125.5802475931483
 31
0.0
  0
ARC
  8
ITEM_50
 10
509.3378951267336
 20
114.5802475931483
 30
0.0
 40
2.0
 50
270.0
 51
0.0
  0
ARC
  8
ITEM_50
 10
509.3378951267336
 20
123.5802475931483
 30
0.0
 40
2.0
 50
0.0
 51
90.0
  0
LINE
  8
ITEM_50
 10
511.3378951267336
 20
123.5802475931483
 30
0.0
 11
511.3378951267336
 21
114.5802475931483
 31
0.0
  0
LINE
  8
ITEM_50
 10
509.3378951267336
 20
125.5802475931483
 30
0.0
 11
499.8378951267336
 21
125.5802475931483
 31
0.0
  0
LINE
  8
ITEM_50
 10
509.3378951267336
 20
112.5802475931483
 30
0.0
 11
499.8378951267336
 21
112.5802475931483
 31
0.0
  0
LINE
  8
ITEM_STPG
 10
476.3378951267336
 20
116.5802475931483
 30
0.0
 11
512.4543526626358
 21
116.5802475931483
 31
0.0
  0
LINE
  8
ITEM_STPG
 10
476.3378951267336
 20
121.5802475931483
 30
0.0
 11
512.9200982526703
 21
121.5802475931483
 31
0.0
  0
LINE
  8
ITEM_GSTRG
 10
478.6257521267336
 20
57.08024759314839
 30
0.0
 11
487.750444340096
 21
57.08024759314839
 31
0.0
  0
ARC
  8
ITEM_GSTRG
 10
489.5128496267336
 20
67.57848859314837
 30
0.0
 40
8.699999999999999
 50
268.8477179999999
 51
4.45219600000001
  0
LINE
  8
ITEM_STPG
 10
514.4176794047842
 20
45.58023709314836
 30
0.0
 11
502.8576875885756
 21
45.58023709314836
 31
0.0
  0
LINE
  8
ITEM_50
 10
511.1377091267337
 20
29.08023709314836
 30
0.0
 11
511.3377091267336
 21
29.28023709314838
 31
0.0
  0
LINE
  8
ITEM_50
 10
504.0377091267337
 20
29.28023709314838
 30
0.0
 11
504.2377091267337
 21
29.08023709314836
 31
0.0
  0
LINE
  8
ITEM_50
 10
504.2377091267337
 20
52.08023709314836
 30
0.0
 11
504.0377091267337
 21
51.88023709314838
 31
0.0
  0
LINE
  8
ITEM_50
 10
511.3377091267336
 20
51.88023709314838
 30
0.0
 11
511.1377091267337
 21
52.08023709314836
 31
0.0
  0
LINE
  8
ITEM_50
 10
511.3377091267336
 20
32.58023709314836
 30
0.0
 11
511.3377091267336
 21
29.28023709314838
 31
0.0
  0
LINE
  8
ITEM_50
 10
511.3377091267336
 20
33.08648709314839
 30
0.0
 11
511.3377091267336
 21
32.58023709314836
 31
0.0
  0
LINE
  8
ITEM_50
 10
511.3377091267336
 20
40.58023709314836
 30
0.0
 11
511.3377091267336
 21
39.90523709314838
 31
0.0
  0
LINE
  8
ITEM_50
 10
511.3377091267336
 20
51.88023709314838
 30
0.0
 11
511.3377091267336
 21
47.63023709316091
 31
0.0
  0
LINE
  8
ITEM_50
 10
504.2377091267337
 20
52.08023709314836
 30
0.0
 11
511.1377091267337
 21
52.08023709314836
 31
0.0
  0
LINE
  8
ITEM_50
 10
511.1377091267337
 20
29.08023709314836
 30
0.0
 11
504.2377091267337
 21
29.08023709314836
 31
0.0
  0
LINE
  8
ITEM_50
 10
511.3377091267336
 20
42.12697509314837
 30
0.0
 11
511.3377091267336
 21
40.58023709314836
 31
0.0
  0
LINE
  8
ITEM_50
 10
504.0377091267337
 20
29.28023709314835
 30
0.0
 11
504.0377091267337
 21
51.88023709314838
 31
0.0
  0
LINE
  8
ITEM_50
 10
511.3377091267336
 20
39.90523709314838
 30
0.0
 11
511.3377091267336
 21
38.07398709314837
 31
0.0
  0
ARC
  8
ITEM_50
 10
510.3375711267337
 20
45.57330809314838
 30
0.0
 40
2.0
 50
292.3798063231631
 51
67.62019367683667
  0
POLYLINE
  8
ITEM_50
 66
     1
 10
0.0
 20
0.0
 30
0.0
  0
VERTEX
  8
ITEM_50
 10
511.0990601267337
 20
87.73782659314839
 30
0.0
 42
0.019578
 70
     2
 50
105.4152489999999
  0
VERTEX
  8
ITEM_50
 10
511.1714116267337
 20
87.61933159314837
 30
0.0
 42
0.250947
  0
VERTEX
  8
ITEM_50
 10
511.3377091267336
 20
87.53025809314836
 30
0.0
 42
0.250947
  0
SEQEND
  8
ITEM_50
  0
ARC
  8
ITEM_50
 10
510.3375711267337
 20
89.58718709314838
 30
0.0
 40
2.0
 50
292.3798063231618
 51
67.62019367683811
  0
LINE
  8
ITEM_50
 10
504.0377091267337
 20
105.8802580931484
 30
0.0
 11
504.0377091267337
 21
83.28025809314836
 31
0.0
  0
LINE
  8
ITEM_50
 10
511.1377091267337
 20
106.0802580931483
 30
0.0
 11
504.2377091267337
 21
106.0802580931483
 31
0.0
  0
LINE
  8
ITEM_50
 10
504.2377091267337
 20
83.08025809314837
 30
0.0
 11
511.1377091267337
 21
83.08025809314837
 31
0.0
  0
LINE
  8
ITEM_50
 10
511.3377091267336
 20
83.28025809314836
 30
0.0
 11
511.3377091267336
 21
87.53025809314836
 31
0.0
  0
LINE
  8
ITEM_50
 10
511.3377091267336
 20
91.64411609314269
 30
0.0
 11
511.3377091267336
 21
97.08650809314836
 31
0.0
  0
LINE
  8
ITEM_50
 10
511.3377091267336
 20
102.0740080931483
 30
0.0
 11
511.3377091267336
 21
102.5802580931483
 31
0.0
  0
LINE
  8
ITEM_50
 10
511.3377091267336
 20
102.5802580931483
 30
0.0
 11
511.3377091267336
 21
105.8802580931483
 31
0.0
  0
LINE
  8
ITEM_50
 10
511.3377091267336
 20
83.28025809314836
 30
0.0
 11
511.1377091267337
 21
83.08025809314837
 31
0.0
  0
LINE
  8
ITEM_50
 10
504.2377091267337
 20
83.08025809314837
 30
0.0
 11
504.0377091267337
 21
83.28025809314836
 31
0.0
  0
LINE
  8
ITEM_50
 10
504.0377091267337
 20
105.8802580931483
 30
0.0
 11
504.2377091267337
 21
106.0802580931483
 31
0.0
  0
LINE
  8
ITEM_50
 10
511.1377091267337
 20
106.0802580931483
 30
0.0
 11
511.3377091267336
 21
105.8802580931483
 31
0.0
  0
LINE
  8
ITEM_STPG
 10
515.0692413730959
 20
89.58025809314837
 30
0.0
 11
502.4999104467286
 21
89.58025809314837
 31
0.0
  0
POLYLINE
  8
ITEM_50
 66
     1
 10
0.0
 20
0.0
 30
0.0
  0
VERTEX
  8
ITEM_50
 10
511.3377091267336
 20
33.08648709314839
 30
0.0
 42
-0.176555
  0
VERTEX
  8
ITEM_50
 10
510.9227906267337
 20
33.23771259314837
 30
0.0
 42
-0.103857
  0
VERTEX
  8
ITEM_50
 10
510.4688101267337
 20
33.81688959314836
 30
0.0
 42
-0.1465480431058107
 70
     2
 50
63.76797000000001
  0
VERTEX
  8
ITEM_50
 10
510.1719030615196
 20
35.58024759314837
 30
0.0
 42
-0.050378
  0
SEQEND
  8
ITEM_50
  0
POLYLINE
  8
ITEM_50
 66
     1
 10
0.0
 20
0.0
 30
0.0
  0
VERTEX
  8
ITEM_50
 10
510.171900746075
 20
35.58024759314837
 30
0.0
 42
-0.1465460930051544
  0
VERTEX
  8
ITEM_50
 10
510.4688101267337
 20
37.34358459314837
 30
0.0
 42
-0.103857
 70
     2
 50
116.2320299999999
  0
VERTEX
  8
ITEM_50
 10
510.9227906267337
 20
37.92276159314839
 30
0.0
 42
-0.176555
  0
VERTEX
  8
ITEM_50
 10
511.3377091267336
 20
38.07398709314837
 30
0.0
 42
-0.176555
  0
SEQEND
  8
ITEM_50
  0
POLYLINE
  8
ITEM_50
 66
     1
 10
0.0
 20
0.0
 30
0.0
  0
VERTEX
  8
ITEM_50
 10
511.3377091267336
 20
102.0740080931483
 30
0.0
 42
0.176555
  0
VERTEX
  8
ITEM_50
 10
510.9227906267337
 20
101.9227825931483
 30
0.0
 42
0.103857
  0
VERTEX
  8
ITEM_50
 10
510.4688101267337
 20
101.3436060931483
 30
0.0
 42
0.1465478686883685
 70
     2
 50
63.76797000000001
  0
VERTEX
  8
ITEM_50
 10
510.1719034304013
 20
99.58024759314837
 30
0.0
 42
0.050378
  0
SEQEND
  8
ITEM_50
  0
POLYLINE
  8
ITEM_50
 66
     1
 10
0.0
 20
0.0
 30
0.0
  0
VERTEX
  8
ITEM_50
 10
510.1719007460749
 20
99.58024759314837
 30
0.0
 42
0.1465460930051603
  0
VERTEX
  8
ITEM_50
 10
510.4688101267337
 20
97.81691059314839
 30
0.0
 42
0.103857
 70
     2
 50
116.2320299999999
  0
VERTEX
  8
ITEM_50
 10
510.9227906267337
 20
97.23773409314837
 30
0.0
 42
0.176555
  0
VERTEX
  8
ITEM_50
 10
511.3377091267336
 20
97.08650809314836
 30
0.0
 42
0.176555
  0
SEQEND
  8
ITEM_50
  0
LINE
  8
ITEM_50
 10
489.3378951267336
 20
58.08024759314869
 30
0.0
 11
489.3378951267336
 21
7.580247593148371
 31
0.0
  0
LINE
  8
ITEM_50
 10
489.3378951267335
 20
204.4687647016672
 30
0.0
 11
489.3378951267336
 21
153.9687647016652
 31
0.0
  0
ARC
  8
ITEM_50
 10
489.3378951267335
 20
213.9687647016652
 30
0.0
 40
13.0
 50
307.979872
 51
307.979872
  0
ARC
  8
ITEM_50
 10
489.3378951267335
 20
213.9687647016652
 30
0.0
 40
13.0
 50
307.979872
 51
307.979872
  0
CIRCLE
  8
ITEM_50
 10
489.3378951267335
 20
213.9687647016652
 30
0.0
 40
8.0
  0
LINE
  8
ITEM_50
 10
484.8309561267336
 20
212.4687647016652
 30
0.0
 11
482.0878951267335
 21
212.4687647016652
 31
0.0
  0
LINE
  8
ITEM_50
 10
484.8309561267336
 20
215.4687647016652
 30
0.0
 11
482.0878951267335
 21
215.4687647016652
 31
0.0
  0
LINE
  8
ITEM_50
 10
496.5878951267335
 20
212.4687647016652
 30
0.0
 11
496.5878951267335
 21
215.4687647016652
 31
0.0
  0
LINE
  8
ITEM_50
 10
482.0878951267335
 20
212.4687647016652
 30
0.0
 11
482.0878951267335
 21
215.4687647016652
 31
0.0
  0
LINE
  8
ITEM_50
 10
496.5878951267335
 20
212.4687647016652
 30
0.0
 11
493.8448341267335
 21
212.4687647016652
 31
0.0
  0
LINE
  8
ITEM_50
 10
496.5878951267335
 20
215.4687647016652
 30
0.0
 11
493.8448341267335
 21
215.4687647016652
 31
0.0
  0
ARC
  8
ITEM_50
 10
489.3378951267335
 20
213.9687647016652
 30
0.0
 40
4.75
 50
198.4084799999999
 51
341.59152
  0
CIRCLE
  8
ITEM_50
 10
489.3378951267335
 20
213.9687647016652
 30
0.0
 40
1.5
  0
ARC
  8
ITEM_50
 10
489.3378951267335
 20
213.9687647016652
 30
0.0
 40
4.75
 50
18.40848
 51
161.59152
  0
ARC
  8
ITEM_50
 10
489.3378951267336
 20
67.58024759314835
 30
0.0
 40
4.75
 50
18.40848
 51
161.59152
  0
CIRCLE
  8
ITEM_50
 10
489.3378951267336
 20
67.58024759314835
 30
0.0
 40
1.5
  0
ARC
  8
ITEM_50
 10
489.3378951267336
 20
67.58024759314835
 30
0.0
 40
4.75
 50
198.4084799999999
 51
341.59152
  0
LINE
  8
ITEM_50
 10
496.5878951267336
 20
69.08024759314835
 30
0.0
 11
493.8448341267336
 21
69.08024759314835
 31
0.0
  0
LINE
  8
ITEM_50
 10
496.5878951267336
 20
66.08024759314835
 30
0.0
 11
493.8448341267336
 21
66.08024759314835
 31
0.0
  0
LINE
  8
ITEM_50
 10
482.0878951267336
 20
66.08024759314835
 30
0.0
 11
482.0878951267336
 21
69.08024759314835
 31
0.0
  0
LINE
  8
ITEM_50
 10
496.5878951267336
 20
66.08024759314835
 30
0.0
 11
496.5878951267336
 21
69.08024759314835
 31
0.0
  0
LINE
  8
ITEM_50
 10
484.8309561267336
 20
69.08024759314835
 30
0.0
 11
482.0878951267336
 21
69.08024759314835
 31
0.0
  0
LINE
  8
ITEM_50
 10
484.8309561267336
 20
66.08024759314835
 30
0.0
 11
482.0878951267336
 21
66.08024759314835
 31
0.0
  0
CIRCLE
  8
ITEM_50
 10
489.3378951267336
 20
67.58024759314841
 30
0.0
 40
8.0
  0
ENDSEC
  0
EOF
